Song name
# A B C D E F G H I J K L M N O P Q R S T U V W X Y Z

Operation Ivy - Unity tab

Unity
By Operation Ivy
Tabbed By G-Johns

All other tabs of this song I’ve seen were either wrong or incomplete. Here’s the real way it’s played.

Intro
E----------------------------------------------------------------------|
B--5-7-9-7--5-7-99-77--------------------------------------------------|
G--6-7-9-7--6-7-99-77--------------------------------------------------|
D--7-7-9-7--7-7-99-77--------------------------------------------------|
A--7-5-7-5--7-5-77-55--------------------------------------------------|
E----------------------------------------------------------------------|

Chorus (repeats a few times)
Guitar 1
E----------------------------------------------------------------------|
B--5-5-5-5-7-7-7-7-9-9-9-9-7-7-7-7-------------------------------------|
G--6-6-6-6-7-7-7-7-9-9-9-9-7-7-7-7-------------------------------------|
D--7-7-7-7-7-7-7-7-9-9-9-9-7-7-7-7-------------------------------------|
A--7-7-7-7-5-5-5-5-7-7-7-7-5-5-5-5-------------------------------------|
E----------------------------------------------------------------------|

Guitar 2
E------(it repeats a few times)----------------------------------------|
B----------------------------------------------------------------------|
G----5-4----------------5-4---4----------------------------------------|
D--7-----7-4-7------4-7-----7---7--------------------------------------|
A--------------7--7----------------------------------------------------|
E----------------------------------------------------------------------|

Verse
(Ska rhythm) (also repeats a few times)
E-55x5x5x5-2-22222-44x4x4x4-5555-2222----------------------------------|
B-55x5x5x5-3-33333-55x5x5x5-5555-3333----------------------------------|
G—66x6x6x6-2-22222-44x4x4x4-6666-2222----------------------------------|
D----------------------------------------------------------------------|
A----------------------------------------------------------------------|
E----------------------------------------------------------------------|

(Ain’t nothin’... part)
Guitar 1 (repeats a few times)
E----------------------------------------------------------------------|
B--5-55-5-77-7-9-99-9-77-7---------------------------------------------|
G--6-66-6-77-7-9-99-9-77-7---------------------------------------------|
D--7-77-7-77-7-9-99-9-77-7---------------------------------------------|
A--7-77-7—55-5-7-77-7-55-5---------------------------------------------|
E----------------------------------------------------------------------|

Guitar 2 (repeats a few times)
E-----------------------------------------------------------------------|
B-----------------------------------------------------------------------|
G—6h7-9-7---------------------------------------------------------------|
D---------9b9b-7--------------------------------------------------------|
A----------------9------------------------------------------------------|
E-----------------------------------------------------------------------|

The last part (‘Unity, as one stand together’) is just the chorus (both guitar parts) 
the second guitar part from that one part up above.
Enjoy because I know this is the full song.
G-Johns
Tap to rate this tab
 
# A B C D E F G H I J K L M N O P Q R S T U V W X Y Z