Song name
# A B C D E F G H I J K L M N O P Q R S T U V W X Y Z

Operation Ivy - Bad Town tab

ax Part
e|---------------------------------------------------------------------------|
B|---------------------------------------------------------------------------|
G|---------------------------------------------------------------------------|
D|---------------------------------------------------------------------------|
A|-8--13-12-10----10----10---------------------------------------------------|
E|-------------12----12------------------------------------------------------|

Ska Chords Through Out the Whole Song
e|---8----8------------------------------------------------------------------|
B|---8----8------------------------------------------------------------------|
G|---10---9------------------------------------------------------------------|
D|---10---10-----------------------------------------------------------------|
A|---8----10-----------------------------------------------------------------|
E|--------8------------------------------------------------------------------|

Little Riffs After the Chords
e|---------------------------------------------------------------------------|
B|---------------------------------------------------------------------------|
G|-------------------------------17-17-15-14---------------------------------|
D|--High Sounding Riff-----15-15---------------------------------------------|
A|---------------------------------------------------------------------------|
E|---------------------------------------------------------------------------|

e|---------------------------------------------------------------------------|
B|---------------------------------------------------------------------------|
G|---------------------------------------------------------------------------|
D|---Low Soundsing Riff------------------------------------------------------|
A|--------------------------10----10-----------------------------------------|
E|-----------------------12----12--------------------------------------------|
	



Tap to rate this tab
# A B C D E F G H I J K L M N O P Q R S T U V W X Y Z