Song name
# A B C D E F G H I J K L M N O P Q R S T U V W X Y Z

Operation Ivy - Knowledge tab

Help us improve GuitareTab! Take a short survey!
#----------------------------------PLEASE NOTE---------------------------------#
#This file is the author's own work and represents their interpretation of the #
#song. You may only use this file for private study, scholarship, or research. #
#------------------------------------------------------------------------------##

                                    KNOWLEDGE
                          As recorded by Operation Ivy
                          (From the 1989 Album ENERGY)

Transcribed by Robert Turner
E-mail: Robert_turner@hotmail.com

          C5                             Bb5                      F5      
      x 3 5 5 x x                    x 1 3 3 x x              1 3 3 x x x

         

Gtr I (E A D G B E) - 'Untitled'

 Intro/Verse
  C5                                      B5                  F5
 4/4
  Gtr I
  PM----------------------------------------------------------------|
|---------|---------|---------|---------|---------|---------|---------|
|---------|---------|---------|---------|---------|---------|---------|
|-5-5-5-5-|-5-5-5-5-|-5-5-5-5-|-5-5-5-0-|-3-3-3-3-|-3-3-3-0-|---------|
|-5-5-5-5-|-5-5-5-5-|-5-5-5-5-|-5-5-5-0-|-3-3-3-3-|-3-3-3-0-|-3-3-3-3-|
|-3-3-3-3-|-3-3-3-3-|-3-3-3-3-|-3-3-3-0-|-1-1-1-1-|-1-1-1-0-|-3-3-3-3-|
|---------|---------|---------|---------|---------|---------|-1-1-1-1-|


           Chorus
            C5                                      B5
  PM----|
|---------|---------|---------|---------|---------|---------|----------|
|---------|---------|---------|---------|---------|---------|----------|
|---------|-5-5-5-5-|-5-5-5-5-|-5-5-5-5-|-5-5-5-0-|-3-3-3-3-|-3-3-3-0--|
|-3-3-3-0-|-5-5-5-5-|-5-5-5-5-|-5-5-5-5-|-5-5-5-0-|-3-3-3-3-|-3-3-3-0--|
|-3-3-3-0-|-3-3-3-3-|-3-3-3-3-|-3-3-3-3-|-3-3-3-0-|-1-1-1-1-|-1-1-1-0--|
|-1-1-1-0-|---------|---------|---------|---------|---------|----------|


                     Solo
  F5
|---------|---------|---------|---------|---------|---------|---------|
|---------|---------|---------|---------|---------|---------|---------|
|---------|---------|---------|---------|---------|---------|---------|
|-3-3-3-3-|-3-3-3-0-|-3-2-0---|-----3-2-|-0-------|---1-1-1-|-3-3-0---|
|-3-3-3-3-|-3-3-3-0-|-------3-|-3-3-----|---3-3-3-|-0-------|-------1-|
|-1-1-1-1-|-1-1-1-0-|---------|---------|---------|---------|---------|


|---------|
|---------|
|---------|
|---------|
|---------|
|-1-1-1-1-|


Lyrics

I know that things are getting tougher
When you can't get the top off from the bottom of the
barrel.
Wide open road of my future now...
It's looking fucking narrow.
All I know is that I don't know nothing.
We get told to decide.
Just like as if I'm not going to change my mind.
all I know is that I don't know nothing.
Whatcha gonna do with yourself boy,
Your running out of time.
This time I got it all figured out:
All I know is that I don't know nothing...
And that's fine. 

I think thats all correct, but e-mail me and tell me where i fucked up!
Related for Knowledge tab