Song name
# A B C D E F G H I J K L M N O P Q R S T U V W X Y Z

Operation Ivy - Jaded tab

Band: Operation Ivy
Song: Jaded
Album: Energy (1989)
Tuning: Standard E A D G B E

Well, Jaded is one of Op Ivy's best songs. Just damn cool
and I think it's just damn easy to play.. so here's the tab:

Intro - The Intro is very heavy distorted and fast to play.
Let every chord fade for a little while before you play the next.

Verse - The Verse contains just the 3 chords which are played.
Let every of the chords fade for a time before you play the next.

Chorus - The Chorus is played palm muted.

 | Intro                       2x |      |
E|--------------------------------|------|
B|--------------------------------|------|
G|--------------------------------|------|
D|--55555555~---------------------|-10~~-|
A|--33333333~66666666~55555555~~--|--8~~-|
E|-----------44444444~33333333~~--|------|

 | Bridge                                         |
E|-----------------------|------------------------|
B|-----------------------|------------------------|
G|-----------------------|------------------------|
D|--5555-----------10-9--|------------------10-9--|
A|--3333-6666-5555--8-7--|---3333-6666-5555--8-7--|
E|-------4444-3333-------|--------4444-3333-------|

 | Verse                                          |
E|---------------------|--------------------------|
B|---------------------|--------------------------|
G|---------------------|--------------------------|
D|--5~~----------------|---5~~--------------------|
A|--3~~-6~~-5~~--6~----|---3~~-6~~-5~~--6~--------|
E|------4~~-3~~--4~----|-------4~~-3~~--4~--------|

 | Pre-Chorus                                     |
E|---------------------|--------------------------|
B|---------------------|--------------------------|
G|---------------------|--------------------------|
D|--5555555------------|---5555555----------------|
A|--3333333-666-555----|---3333333-666-555--------|
E|----------444-333----|-----------444-333--------|

 | Chorus                                      2x |
E|---------------------|--------------------------|
B|---------------------|--------------------------|
G|---------------------|--------------------------|
D|--5555555------------|---5555555----------------|
A|--3333333-333-555----|---3333333-333-555--------|
E|----------111-333----|-----------111-333--------|

Order: Intro - Bridge 2x - Verse - Pre-Chorus - Chorus -
 Bridge 2x - Verse - Pre-Chorus - Chorus - Bridge - Chorus

Note: - After the last chorus you have to end the song up
        with the C5 chord which you just let fade...

So, that's it! Enjoy the sound of Operation Ivy...

If you have any questions etc. or just wanna talk about some Shit:
Send me a mail: My Name's Chad - SuburbiaBomb@Web.De
Or visit my blog: SuburbiaBomb.Blogspot.Com
Tap to rate this tab
# A B C D E F G H I J K L M N O P Q R S T U V W X Y Z