Song name
# A B C D E F G H I J K L M N O P Q R S T U V W X Y Z

Operation Ivy - Vulnerability tab

Band: Operation Ivy
Song: Vulnerability
Album: Energy (1989)
Tuning: Standard E A D G B E



Main Riff - I tabed two versions for it: the 'right one' #1 which is
'kinda right' and an esier one which sound close too. Choose wisely...

 | Version #1
e|----------------------------|--------------------------|
B|----------------------------|--------------------------|
G|----------------------------|--------------------------|
D|-----44---77---------4-7----|--------------------------|
A|-----55-5-55-5-4-4-7-5-5----|----444-777^--22-5-4-5----|
E|---------------5-5-5---5----|----555-555^--33-3--------|
 | Version #2                                            |
e|----------------------------|--------------------------|
B|----------------------------|--------------------------|
G|----------------------------|--------------------------|
D|-----444-7-77-------4-7-----|--------------------------|
A|-----555-5-55-4-4-7-5-5-----|----444-7-77-2-5-5-4-5----|
E|--------------5-5-5---------|----555-5-55-3-3-3-3-3----|

 | Verse                           | Chorus                          
e|---------------------------------|---------------------------------|
B|---------------------------------|---------------------------------|
G|--777777-----777--777777-----777-|-------------777-------------777-|
D|--777777-777-777--777777-777-777-|--777777-555-777--777777-555-555-|
A|--555555-777-555--555555-777-555-|--777777-555-555--777777-555-555-|
E|---------555-------------555-----|--555555-333------555555-333-----|
P.M.xxxxxxxxxxxxxxxxxxxxxxxxxxxxxx |

 | Bridge
e|--------------------------------|----------------------------------|
B|--------------------------------|----------------------------------|
G|---------7----------------------|-----------7----------------------|
D|---5---557---7-77-767-7-77-767--|---6/5---557---7-77-767-7-77-767--|
A|---5---555---7-77-767-7-77-767--|---6/5---555---7-77-767-7-77-767--|
E|---3---33----5-55-545-5-55-545--|---4/3---33----5-55-545-5-55-545--|
 |                                      2x |                         |
e|-----------------------------------------|-------------------------|
B|-----------------------------------------|-------------------------|
G|------------7-77-777---------------------|-------------------------|
D|---5-55-555-7-77-777-7-77-767-7-77-767---|-------------------------|
A|---5-55-555-5-55-555-7-77-767-7-77-767---|-------------------------|
E|---3-33-333----------5-55-545-7-77-767---|-------------------------|

 | Outro
e|-------------------------------------------------------------------|
B|-------------------------------------------------------------------|
G|----------------77~------------------------------------------------|
D|---5~---55~---7-77~------------------------------------------------|
A|---5~---55~---5-55~------------------------------------------------|
E|---3~---33~--------------------------------------------------------|

Order: Main Riff 2x - Verse - Chorus - Verse - Verse - Chorus - Main Riff
Verse - Chorus - Verse - Chorus - Bridge - Main Riff 2x - Outro

Note: - Verse is Palm Muted (P.M.)
I think the Main Riff is the only hard thing in this song - the rest is
quiet easy. However, you just have to figure out the Main Riff...

So, keep it on and enjoy the sound of Operation Ivy... 

If you have any questions etc. or just wanna talk about Op Ivy or some shit:
Send me a mail: My Name's Chad - TheSuburbiaBomb@Gmail.Com
Or visit my blog: SuburbiaBomb.Blogspot.Com
Tap to rate this tab
 
# A B C D E F G H I J K L M N O P Q R S T U V W X Y Z