Song name
# A B C D E F G H I J K L M N O P Q R S T U V W X Y Z

Operation Ivy - Smiling tab

-------------------------------------------------------------------------------
                             Smiling - Operation Ivy
-------------------------------------------------------------------------------
Tabbed by: Pmdean95 (Parker Dean)
E-mail: Pmdean95@gmail.com

Tuning: Standard

Here's a great bass line from a great song by the band Operation Ivy. Enjoy!


Intro:  .       .       .
G|------------------------------------|
D|------------------------------------|
A|--11123---11123---11123---55555555--|
E|------------------------------------|


Verse 1:
    .             .
G|------------------------------------|
D|--------------2-3--3331-0-11110-----|
A|------2-5-3333------------------3---|
E|--3--3------------------------------| x2

G|--------------------|
D|----------3333------|
A|-----23333----5535--|
E|--333---------------|


Chorus 1:
G|----------------------------------|
D|----------------------------------|
A|----0-1-2-3-2-1-0--0-1-2-11123-5--|
E|--3---------------3---------------|


Verse 2:
    .             .
G|------------------------------------|
D|--------------2-3--3331-0-11110-----|
A|------2-5-3333------------------3---|
E|--3--3------------------------------| x2

G|--------------------|
D|----------3333------|
A|-----23333----5535--|
E|--333---------------|


[REPEAT CHORUS]


Bridge:
G|--------------------5533----5533----------33------------------------|
D|----5533----5533--------55------55--553300--553355------------------|
A|--------55------5533------33----------------------4555455545554555--|
E|--33------33----------------------33--------------------------------|


[REPEAT CHORUS]


Outro:                          . .
G|------------------------------------------------------------|
D|------------------------------------------------------------|
A|----------11113333--------11123-5---------11113333----------|
E|--33333333--------33333333--------33333333--------33333333--|

        . .     . .     . . 
G|--------------------------------------------|
D|--------------------------------------------|
A|--11123-5-11123-5-11123-5-------------------|
E|--------------------------3-----------------|


THE END!


| /  slide up
| \  slide down
| h  hammer-on
| p  pull-off
| ~  vibrato
| +  harmonic
| x  Mute note
===============================================================================
Tap to rate this tab
# A B C D E F G H I J K L M N O P Q R S T U V W X Y Z