Song name
# A B C D E F G H I J K L M N O P Q R S T U V W X Y Z

Operation Ivy - I Got No tab

----------------------------------------------------------------------------
			I Got No - Operation Ivy
----------------------------------------------------------------------------

Tuning:standard

Intro/Verse
e|-------------------------------------------------------------------------|
B|-------------------------------------------------------------------------|
G|--5--5---------5--5---------5--5-----------------------------------------|
D|--5--5--3-3-3--5--5--3-3-3--5--5--3-3-3--5--5--3-3-3---------------------|
A|--3--3--3-3-3--3--3--3-3-3--3--3--3-3-3--5--5--3-3-3---------------------|
E|--------1-1-1--------1-1-1--------1-1-1--3--3--1-1-1---------------------|

Chours
e|--------------------------------------------------|
B|--------------------------------------------------|
G|--5--5-5-5---10-10-10-10--------------------------|
D|--5--5-5-5---10-10-10-10--5-5-5-5----3-3-3-3------|
A|--3--3-3-3---8--8--8--8---5-5-5-5----3-3-3-3------|
E|--------------------------3-3-3-3----1-1-1-1------|


Looks pretty fucking good to me....
?/cmnts-                             frenchabortion@hotmail.com
Tap to rate this tab
# A B C D E F G H I J K L M N O P Q R S T U V W X Y Z