Song name
# A B C D E F G H I J K L M N O P Q R S T U V W X Y Z

Operator Please - Crash Tragic tab

Tuning:standard eBGDAE
x means mute/don't play
no capo

intro:guitar
e|--------------------------------------------------------------------------|
B|--------5-----------------------------------------------------------------|
G|---6--------6--------x8---------------------------------------------------|
D|------------------4-------------------------------------------------------|
A|--------------------------------------------------------------------------|
E|--------------------------------------------------------------------------|

Tuning:
chorus/jam sort of session before 2nd verse listen to song for strumming pattern (chords)
e|-0---|----2---|
B|-0---|----2---|
G|-1---|----3---|   hope you enjoyed and learned how to play crash tragic
D|-2---|----4---|   its my fist tab so i know its not that good...cya!!!
A|-2---|----x---|
E|-0---|----x---|
Tap to rate this tab
# A B C D E F G H I J K L M N O P Q R S T U V W X Y Z