Song name
# A B C D E F G H I J K L M N O P Q R S T U V W X Y Z

Operator Please - Get What You Want tab

Artist: Operator Please
Song: Get What you Want

This is the intro for the bass and the guitar, it's a wierd arangment but i don't mind. 
done the bass tab as a guitar tab cause i wanted to. :]

Bass Part. Which i think is played through most of the song.

E|---------------------------------|----------------------------------|
B|---------------------------------|----------------------------------|
G|---------------------------------|----------------------------------|
D|-------------------------4--2----|--------------------------4--2----|
A|----------2--4---0--2--2---------|----------2--4---0--2--2----------|
E|--0--2--2------------------------|--0--2--2-------------------------|

Then The Guitar Comes In. Bass continues to play the main bass riff

E|------------------------------------------------|
B|--2-1-2--22-222--\55-/22-\77-/22-\99--/22-2-1-2-|
G|------------------------------------------------|  Repeat Twice
D|------------------------------------------------|       x2
A|------------------------------------------------|
E|------------------------------------------------|


Pre Verse 1

Bass Part x2

E|---------------------------------|----------------------------------|
B|---------------------------------|----------------------------------|
G|---------------------------------|----------------------------------|
D|-------------------------4--2----|--------------------------4--2----|
A|----------2--4---0--2--2---------|----------2--4---0--2--2----------|
E|--0--2--2------------------------|--0--2--2-------------------------|

Guitar Part Whilst Bass Is Playing x1

E|---------------------------------|---------------------------------------|
B|---------------------------------|----------------------------------2-1-2|
G|---------------------------------|---------------------------------------|
D|---------------------------------|---------------------------------------|
A|---------------------------------|---------------------------------------|
E|---------------------------------|---------------------------------------|

Thats all i could get, hope this is an alright tab, any queries about it send em to
dix-neuf_vingt_vingt@hotmail.com
Tap to rate this tab
# A B C D E F G H I J K L M N O P Q R S T U V W X Y Z