Guitaretab - guitar tabs
Song name
# A B C D E F G H I J K L M N O P Q R S T U V W X Y Z

Operator Please - Just A Song About Ping Pong tab

---------------------------------------------------------------------------
                 JUST A SONG ABOUT PING PONG - Operator Please
----------------------------------------------------------------------------
Tabbed by: illy93
Tuning: Standard
[ Tab from: http://www.guitaretab.com/o/operator-please/98105.html ]
Main Riff:
e|------------------------|
B|------------------------|
G|------------------------|
D|-------999--77----------|
A|---------------9--------|
E|-----7------------------|

Interlude: "If I know you running..."

e|-------------|
B|-------------|
G|--4444-4444--|
D|--4444-4444--|
A|--2222-2222--|
E|-------------| x 4 then...
  ___PM________

e|--------|
B|--------|
G|--2-2---|
D|--2-2---|
A|--0-0---|
E|--------|


Chorus: "Cheater! Liar!"
e|-----------|
B|-----------|
G|---2-2-4---|
D|---2-2-4---|
A|---0-0-2---|
E|-----------|

And that's it. Heaps easy, but heaps catchy!
Related for Just A Song About Ping Pong tab
Advertisement will be closed in 10 seconds