Song name
# A B C D E F G H I J K L M N O P Q R S T U V W X Y Z

Operator Please - Yes Yes tab

----------------------------------------------------------------------------
			   YES YES - Operator Please
----------------------------------------------------------------------------
Tabbed by: illy93
Tuning: Standard

Play this song dirty.

x= mute string

Riff A:                             
e|------------------------------------|
B|------------------------------------|
G|------------------------------------|
D|------------------------------------|
A|------------------------------------|
E|--5-5-303-55-8888--5-5-303-55-0000--|
 
Riff B:                                        
e|----------|
B|----10----|
G|----10-9--|
D|--9-10-9--|
A|--7-8--7--|
E|--0----0--|

Riff C:

   (A5)(C5)  (D5)     (D5)       
e|------------------------------------|
B|------------------------------------|
G|------------------------------------|
D|--77x-1010x-1212x---12121212121212--|
A|--77x-1010x-1212x---12121212121212--|
E|--55x-88--x-1010x---10101010101010--|

Riff D:
e|-------------------------------|
B|-------------------------------|
G|-------------------------------|
D|-------------------------------|
A|-------------------------------|
E|--555-3-55-8888-555-3-55-0000--|

Riff E:
e|-----------------|-----------------|
B|-----------------R-----------------|
G|-----------------E-----------------|
D|-----------------S-----------------|
A|-----------------T-----------------|
E|--555-3-55-8888--|--555-3-55-0000--|


~STRUCTURE~
Riff A x 4
Riff B x 1
Riff A x 4
Riff B x 2
Riff C x 4
Riff A x 4
Riff B x 2
Riff C x 4
Riff D x 2
Riff E x 1
Riff B x 1

And that's it.
----------------------------------------------------------------------------
Tap to rate this tab
 
# A B C D E F G H I J K L M N O P Q R S T U V W X Y Z