Song name
# A B C D E F G H I J K L M N O P Q R S T U V W X Y Z

Opeth - Heir Apparent tab

Help us improve GuitareTab! Take a short survey!
this is the intro for heir apparent. its quite hard to tab it out accuratly because
only a live footage of this song out there, but i couldnt get that intro out of my head so
just tabbed it out as accuratly as possible (for me) (link to the video:
http://video.google.com/videoplay?docid=-7413196368343592012&q=opeth&total=3436&start=
0&num=10&so=1&type=search&plindex=4)

guit1
e|---------------------------------------------------------------------------|
B|---------------------------------------------------------------------------|
G|---------------------------------------------------------------------------|
D|2----------------4-4-------------------------------------------------------|
A|2----------------4-4--------/14--------------------------------------------|
E|0----------------2-2-----00------------------------------------------------|

guit2
e|---------------------------------------------------------------------------|
B|---------------------------------------------------------------------------|
G|-4-4-3-3-----------3-------------------------------------------------------|
D|---------5-5-4-4-----------------------------------------------------------|
A|---------------------------------------------------------------------------|
E|-----------------2---------------------------------------------------------|

guit1
e|---------------------------------------------------------------------------|
B|---------------------------------------------------------------------------|
G|---------------------------------------------------------------------------|
D|2----------------4-4-------------------------------------------------------|
A|2----------------4-4--------/14--------------------------------------------|
E|0----------------2-2-----00------------------------------------------------|

guit2
e|----/5---------------------------------------------------------------------|
B|-------4-5-6-5-5-----------------------------------------------------------|
G|-4-4-------------4-3-------------------------------------------------------|
D|---------------------------------------------------------------------------|
A|---------------------------------------------------------------------------|
E|---------------------------------------------------------------------------|
Related for Heir Apparent tab