Song name
# A B C D E F G H I J K L M N O P Q R S T U V W X Y Z

Opeth - Coil tab

-------------------------------------------------------------------------------
			     Coil - Opeth (Watershed 2008)
-------------------------------------------------------------------------------
Tabbed by: Dan Liew
Email: delcypher@gmail.com

Tuning: Standard (EADGBe)
Legend:
h - hammer on
p - pull of
/ - slide up/down to
x - do not play string

A big thanks to Onur Akmeric, "Ibaneavey" &  "nirvana4lf" for correcting some of my mistakes.

Note:
I highly recommend that you play this using finger-picking.
I have not indicated the rhythm anywhere and the spacing between notes on this
tab is just arbitaty, please figure out the rhythm for yourself, it's not
hard.

Feel free to critise, but be constructive and say why you think it's wrong. 

Enjoy a beautiful song!
--------------------------------------------------------------------------------------------
Play Order: AABBCC  [Female vocals start]BBCCB 

(For outro only play the first riff in Part B)


Part A 

Let ring--->        

e|---------0-------|--------0-------|| 
B|-------0---0-----|------0---0-----||  
G|2---5--------5---|----8-------8---||  
D|--4------------4-|7-------------7-||  
A|0----------------|0-0-------------|| 
E|-----------------|----------------||  

Chords (Strum these):

e|0-0-0-0-|0-0-0-0-|0-0-0-0--|0-0-||               
B|5-5-3-3-|3-3-1-1-|1-1-3-3--|0-0-||            
G|6-6-4-4-|4-4-2-2-|2-2-4-4/-|7-5-||              
D|7-7-5-5-|5-5-3-3-|3-3-5-5/-|9-7-||         
A|0-0-0-0-|0-0-0-0-|0-0-0-0--|0-0-||        
E|x-x-x-x-|x-x-x-x-|x-x-x-x--|x-x-||



Part B

"For nothing..."

Repeat this riff as necessary

e|--------------------------------|
B|--------------------------------|
G|9-----9-----9-----9-----9---7---|
D|--7-----7-----7-----7-----7---7-|
A|----0-----0-----0-----0---------|
E|--------------------------------| 

"I found that the years past us by..."

e|----------------|------------------|
B|----------------|------------------|
G|----7-----7-----|-----0-----0------|
D|--5---5-----5---|---5-----5-----5--|
A|5-------5-----5-|/5-----3-----2---0| 
E|----------------|------------------|

Let the open A ring slightly before restarting the above riff

Part C

"And I can see you, running through the fields of sorrow..."

e|----------------|--------0---------|----------------|----------------|
B|----------------|------0---0-------|--------3-------|----3-----------|
G|----7---9---7---|----5-------5-----|----0-----0---0-|------0-----0---|
D|--7---7---7---7-|--7-----------7---|--0---0-----0---|--0-------0---0-|
A|0---------------|0---------------0-|5---------------|5-------3-------|
E|----------------|------------------|----------------|----------------|


1st time round you play this:

The Hammer on/pull of bit is a triplet

e|-------------------------------------------|---------------------------|
B|-------------------------------------------|---------------------------|
G|----7---6-7/9---12--/14---12-11h12p11-9----|6-7/9----7-6---4---7---6---|
D|--7---7---------------------------------12-|7-9/11---9-7---5---9---7---|
A|0-------------0----0----0------------------|0------0-----0---0---0---0-|
E|-------------------------------------------|---------------------------| 

Go back to the beginning of Part C

2nd time round go back to Part B.

Tap to rate this tab
 
# A B C D E F G H I J K L M N O P Q R S T U V W X Y Z