Song name
# A B C D E F G H I J K L M N O P Q R S T U V W X Y Z

Opeth - The Lotus Eater tab

              The Lotus Eater                


                                        Opeth
Guitar 1



     H           W                H         
E||-----------|----------------------------|
B||-----------|----------------------------|
G||-----------|----------------------------|
D||-----------|----------------------------|
A||-----------|----------------------------|
E||-----------|----------------------------|


  W                H         
----------------------------|
----------------------------|
----------------------------|
----------------------------|
----------------------------|
----------------------------|


  W                H         
----------------------------|
----------------------------|
----------------------------|
----------------------------|
----------------------------|
----------------------------|


  W                   H         
-------------------|-----------|
-------------------|-----------|
-------------------|-----------|
-------------------|-----------|
-------------------|-----------|
-------------------|-----------|


  |--3--|  |--3--|  |--3--|  |--3--|   
  E  E  E  E  E  E  E  E  E  E  E  E   
-----------0--0--0--0--0--0--0--0--0--|
-----------0--0--0--0--0--0--0--0--0--|
-----------1--1--1--1--1--1--1--1--1--|
-----------2--2--2--2--2--2--2--2--2--|
--1--1--1--2--2--2--2--2--2--2--2--2--|
-----------0--0--0--0--0--0--0--0--0--|


  |--3--|  |--3--|  |--3--|  |--3--|   
  E  E  E  E  E  E  E  E  E  E  E  E   
--0--0--0--0--0--0--0--0--0--0--0--0--|
--0--0--0--0--0--0--0--0--0--0--0--0--|
--1--1--1--1--1--1--1--1--1--1--1--1--|
--2--2--2--2--2--2--2--2--2--2--2--2--|
--2--2--2--2--2--2--2--2--2--2--2--2--|
--0--0--0--0--0--0--0--0--0--0--0--0--|


  |--3--|  |--3--|  |--3--|  |--3--|   
  E  E  E  E  E  E  E  E  E  E  E  E   
-----------0--0--0--0--0--0--0--0--0--|
-----------0--0--0--0--0--0--0--0--0--|
-----------1--1--1--1--1--1--1--1--1--|
-----------2--2--2--2--2--2--2--2--2--|
--1--1--1--2--2--2--2--2--2--2--2--2--|
-----------0--0--0--0--0--0--0--0--0--|


  |--3--|  |--3--|  |--3--|  |--3--|   
  E  E  E  E  E  E  E  E  E  E  E  E   
--0--0--0--0--0--0--0--0--0--0--0--0--|
--0--0--0--0--0--0--0--0--0--0--0--0--|
--1--1--1--1--1--1--1--1--1--1--1--1--|
--2--2--2--2--2--2--2--2--2--2--2--2--|
--2--2--2--2--2--2--2--2--2--2--2--2--|
--0--0--0--0--0--0--0--0--0--0--0--0--|


                 |--3--|   
  Q    Q    Q    E  E  E   
-------0------------------|
-------0------------------|
-------1------------------|
--6----2----3----7--L--7--|
--6----2----3----7--L--7--|
--4----0----1----5--L--5--|


                 |--3--|   
  Q    Q    Q    E  E  E   
-------0------------------|
-------0------------------|
-------1------------------|
--6----2----3----7--L--7--|
--6----2----3----7--L--7--|
--4----0----1----5--L--5--|


                 |--3--|   
  Q    Q    Q    E  E  E   
-------0------------------|
-------0------------------|
-------1------------------|
--6----2----3----7--L--7--|
--6----2----3----7--L--7--|
--4----0----1----5--L--5--|


                 |--3--|   
  Q    Q    Q    E  E  E   
-------0------------------|
-------0------------------|
-------1------------------|
--6----2----3----7--L--7--|
--6----2----3----7--L--7--|
--4----0----1----5--L--5--|


  |--3--|  |--3--|  |--3--|  |--3--|   
  E  E  E  E  E  E  E  E  E  E  E  E   
-----------0--0--0--0--0--0--0--0--0--|
-----------0--0--0--0--0--0--0--0--0--|
-----------1--1--1--1--1--1--1--1--1--|
-----------2--2--2--2--2--2--2--2--2--|
--1--1--1--2--2--2--2--2--2--2--2--2--|
-----------0--0--0--0--0--0--0--0--0--|


  |--3--|  |--3--|  |--3--|  |--3--|   
  E  E  E  E  E  E  E  E  E  E  E  E   
--0--0--0--0--0--0--0--0--0--0--0--0--|
--0--0--0--0--0--0--0--0--0--0--0--0--|
--1--1--1--1--1--1--1--1--1--1--1--1--|
--2--2--2--2--2--2--2--2--2--2--2--2--|
--2--2--2--2--2--2--2--2--2--2--2--2--|
--0--0--0--0--0--0--0--0--0--0--0--0--|


  |--3--|  |--3--|  |--3--|  |--3--|   
  E  E  E  E  E  E  E  E  E  E  E  E   
-----------0--0--0--0--0--0--0--0--0--|
-----------0--0--0--0--0--0--0--0--0--|
-----------1--1--1--1--1--1--1--1--1--|
-----------2--2--2--2--2--2--2--2--2--|
--1--1--1--2--2--2--2--2--2--2--2--2--|
-----------0--0--0--0--0--0--0--0--0--|


  |--3--|  |--3--|  |--3--|  |--3--|   
  E  E  E  E  E  E  E  E  E  E  E  E   
--0--0--0--0--0--0--0--0--0--0--0--0--|
--0--0--0--0--0--0--0--0--0--0--0--0--|
--1--1--1--1--1--1--1--1--1--1--1--1--|
--2--2--2--2--2--2--2--2--2--2--2--2--|
--2--2--2--2--2--2--2--2--2--2--2--2--|
--0--0--0--0--0--0--0--0--0--0--0--0--|


                  |--3--|   
  Q    Q    Q     E  E  E   
--4----0-------------------|
--4----0-------------------|
--4----1-------------------|
--6----2----3S----7--L--7--|
--6----2----3S----7--L--7--|
--4----0----1S----5--L--5--|


                  |--3--|   
  Q    Q    Q     E  E  E   
-------0-------------------|
-------0-------------------|
-------1-------------------|
--6----2----3S----7--L--7--|
--6----2----3S----7--L--7--|
--4----0----1S----5--L--5--|


                  |--3--|   
  Q    Q    Q     E  E  E   
-------0-------------------|
-------0-------------------|
-------1-------------------|
--6----2----3S----7--L--7--|
--6----2----3S----7--L--7--|
--4----0----1S----5--L--5--|


                  |--3--|   
  Q    Q    Q     E  E  E   
-------0-------------------|
-------0-------------------|
-------1-------------------|
--6----2----3S----7--L--7--|
--6----2----3S----7--L--7--|
--4----0----1S----5--L--5--|


  W                   H.           Q     
-------------------|---------------0----|
-------------------|---------------0----|
-------------------|---------------6----|
-------------------|---------------6----|
-------------------|---------------4----|
-------------------|--------------------|


  |--3--|  |--3--|  |--3--|  |--3--|   
  E  E  E  E  E  E  E  E  E  E  E  E   
--------------------------------------|
--------------------------------------|
--------------------------------------|
--1--1--1-----1--1--1--1--1-----1--1--|
--3--3--3-----3--3--3--3--3-----3--3--|
--------------------------------------|


  |--3--|  |--3--|  |--3--|        
  E  E  E  E  E  E  E  E  E  Q     
-----------------------------0----|
-----------------------------0----|
-----------------------------6----|
--1--1--1-----1--1--1--1--1--6----|
--3--3--3-----3--3--3--3--3--4----|
----------------------------------|


  |--3--|  |--3--|  |--3--|  |--3--|   
  E  E  E  E  E  E  E  E  E  E  E  E   
--------------------------------------|
--------------------------------------|
--------------------------------------|
--1--1--1-----1--1--1--1--1-----1--1--|
--3--3--3-----3--3--3--3--3-----3--3--|
--------------------------------------|


  |--3--|  |--3--|  |--3--|        
  E  E  E  E  E  E  E  E  E  Q     
-----------------------------0----|
-----------------------------0----|
-----------------------------6----|
--1--1--1-----1--1--1--1--1--6----|
--3--3--3-----3--3--3--3--3--4----|
----------------------------------|


  |--3--|  |--3--|  |--3--|  |--3--|   
  E  E  E  E  E  E  E  E  E  E  E  E   
--------------------------------------|
--------------------------------------|
--------------------------------------|
--1--1--1-----1--1--1--1--1-----1--1--|
--3--3--3-----3--3--3--3--3-----3--3--|
--------------------------------------|


  |--3--|  |--3--|  |--3--|        
  E  E  E  E  E  E  E  E  E  Q     
-----------------------------0----|
-----------------------------0----|
-----------------------------6----|
--1--1--1-----1--1--1--1--1--6----|
--3--3--3-----3--3--3--3--3--4----|
----------------------------------|


  |--3--|  |--3--|  |--3--|  |--3--|   
  E  E  E  E  E  E  E  E  E  E  E  E   
--------------------------------------|
--------------------------------------|
--------------------------------------|
--1--1--1-----1--1--1--1--1-----1--1--|
--3--3--3-----3--3--3--3--3-----3--3--|
--------------------------------------|


  |--3--|  |--3--|  |--3--|        
  E  E  E  E  E  E  E  E  E  Q     
-----------------------------0----|
-----------------------------0----|
-----------------------------6----|
--1--1--1-----1--1--1--1--1--6----|
--3--3--3-----3--3--3--3--3--4----|
----------------------------------|


  |--3--|  |--3--|  |--3--|  |--3--|   
  E  E  E  E  E  E  E  E  E  E  E  E   
--------------------------------------|
--------------------------------------|
--------------------------------------|
--1--1--1-----1--1--1--1--1-----1--1--|
--3--3--3-----3--3--3--3--3-----3--3--|
--------------------------------------|


  |--3--|  |--3--|  |--3--|        
  E  E  E  E  E  E  E  E  E  Q     
-----------------------------0----|
-----------------------------0----|
-----------------------------6----|
--1--1--1-----1--1--1--1--1--6----|
--3--3--3-----3--3--3--3--3--4----|
----------------------------------|


  |--3--|  |--3--|  |--3--|  |--3--|   
  E  E  E  E  E  E  E  E  E  E  E  E   
--------------------------------------|
--------------------------------------|
--------------------------------------|
--1--1--1-----1--1--1--1--1-----1--1--|
--3--3--3-----3--3--3--3--3-----3--3--|
--------------------------------------|


  |--3--|  |--3--|  |--3--|        
  E  E  E  E  E  E  E  E  E  Q     
-----------------------------0----|
-----------------------------0----|
-----------------------------6----|
--1--1--1-----1--1--1--1--1--6----|
--3--3--3-----3--3--3--3--3--4----|
----------------------------------|


  PM PM PM PM PM PM PM                 
  |--3--|  |--3--|  |--3--|  |--3--|   
  E  E  E  E  E  E  E  E  E  E  E  E   
--------------------------------------|
--------------------------------------|
--------------------------------------|
-----2--------3-----------------------|
--------3--2-----0--0--2--L-----------|
--0-----------------------0--4--L--0--|


  Corections on this section by TMA-2 (bars 3
  |-------------------------3----------------
  E                                          
---------------------------------------------
---------------------------------------------
---------------------------------------------
---------------------------------------------
---------------------------------------------
--4------------------------------------------


  and repetitions)                           
  |---------3---------|       |--3--|  |---3-
  E                E  E  Q    E  E  E  E   E 
---------------------------------------------
---------------------------------------------
---------------------------------------------
-------------------------6-------------6s--7s
---------------------------------------------
--4----------------L--4--4----4--L--4--4s--5s


  |--3--|       |--3--|  |--3--|   
  E  E  E  Q    E  E  E  E  E  E   
----------------------------------|
----------------------------------|
----------------------------------|
-----------6----------------------|
----------------------------------|
--4--L--4--4----4--L--4--4--5--7--|


  |--3--|  |--3--|  |--3--|  |--3--|   
  E  E  E  E  E  E  E  E  E  E  E  E   
--------------------------------------|
--------------------------------------|
-----------------------------------1--|
--3--------------------------------2--|
--------5--6-----5-----------------2--|
-----7--------7-----6--5--0--6--3--0--|


          PM PM PM PM      PM PM PM  
  |--3-|  |--3--|  |--3-|  |--3--|   
  Q    E  E  E  E  Q    E  E  E  E   
-------------------0----0-----------|
-------------------0----0-----------|
--L----1-----------1----1-----------|
--L----2-----------2----2-----------|
--L----2-----------2----2-----------|
--L----0--0--0--0--0----0--0--0--0--|


  PM      PM PM              
  |--3-|  |--3--|            
  Q    E  E  E  E  H         
--0----0--------0--L--------|
--0----0--------0--L--------|
--1----1--------3--L--------|
--2----2--------2--L--------|
--2----2--------1--L--------|
--0----0--0--0--0--L--------|


       PM PM PM      PM PM PM  
       |--3--|       |--3--|   
  Q    E  E  E  Q    E  E  E   
--0---------------------------|
--0---------------------------|
--1---------------------------|
--2---------------------------|
--2---------------------------|
--0----0--0--0--1----0--0--0--|


        |--3--|   |--3--|  |---3--|   
  Q     E  E  E   E  E  E  E   E  E   
-------------------------------------|
-------------------------------------|
-------------------------------------|
--3/----2--0--3~--L--2---------------|
------------------------5------------|
--1/-----------------------3S--0--0--|


  |--3--|       |--3--|  |---3---|   
  E  E  E  Q    E  E  E  E   E   E   
------------------------------------|
------------------------------------|
------------------------------------|
-----------6-------------6s--7s--6--|
------------------------------------|
--4--L--4--4----4--L--4--4s--5s--4--|


  |--3--|       |--3--|  |---3---|   
  E  E  E  Q    E  E  E  E   E   E   
------------------------------------|
------------------------------------|
------------------------------------|
-----------6-------------6s--7s--6--|
------------------------------------|
--4--L--4--4----4--L--4--4s--5s--4--|


  |--3--|       |--3--|  |--3--|   
  E  E  E  Q    E  E  E  E  E  E   
----------------------------------|
----------------------------------|
----------------------------------|
-----------6----------------------|
----------------------------------|
--4--L--4--4----4--L--4--4--5--7--|


  |--3--|  |--3--|  |--3--|  |--3--|   
  E  E  E  E  E  E  E  E  E  E  E  E   
--------------------------------------|
--------------------------------------|
-----------------------------------1--|
--3--------------------------------2--|
--------5--6-----5-----------------2--|
-----7--------7-----6--5--0--6--3--0--|


          PM PM PM PM      PM PM PM  
  |--3-|  |--3--|  |--3-|  |--3--|   
  Q    E  E  E  E  Q    E  E  E  E   
-------------------0----0-----------|
-------------------0----0-----------|
--L----1-----------1----1-----------|
--L----2-----------2----2-----------|
--L----2-----------2----2-----------|
--L----0--0--0--0--0----0--0--0--0--|


  PM      PM PM              
  |--3-|  |--3--|            
  Q    E  E  E  E  H         
--0----0--------0--L--------|
--0----0--------0--L--------|
--1----1--------3--L--------|
--2----2--------2--L--------|
--2----2--------1--L--------|
--0----0--0--0--0--L--------|


       PM PM PM      PM PM PM  
       |--3--|       |--3--|   
  Q    E  E  E  Q    E  E  E   
--0---------------------------|
--0---------------------------|
--1---------------------------|
--2---------------------------|
--2---------------------------|
--0----0--0--0--1----0--0--0--|


        |--3--|   |--3--|  |---3--|   
  Q     E  E  E   E  E  E  E   E  E   
-------------------------------------|
-------------------------------------|
-------------------------------------|
--3/----2--0--3~--L--2---------------|
------------------------5------------|
--1/-----------------------3S--0--0--|


  W                   H.           Q     
-------------------|---------------0----|
-------------------|---------------0----|
-------------------|---------------6----|
-------------------|---------------6----|
-------------------|---------------4----|
-------------------|--------------------|


  |--3--|  |--3--|  |--3--|  |--3--|   
  E  E  E  E  E  E  E  E  E  E  E  E   
--------------------------------------|
--------------------------------------|
--------------------------------------|
--1--1--1-----1--1--1--1--1-----1--1--|
--3--3--3-----3--3--3--3--3-----3--3--|
--------------------------------------|


  |--3--|  |--3--|  |--3--|        
  E  E  E  E  E  E  E  E  E  Q     
-----------------------------0----|
-----------------------------0----|
-----------------------------6----|
--1--1--1-----1--1--1--1--1--6----|
--3--3--3-----3--3--3--3--3--4----|
----------------------------------|


  |--3--|  |--3--|  |--3--|  |--3--|   
  E  E  E  E  E  E  E  E  E  E  E  E   
--------------------------------------|
--------------------------------------|
--------------------------------------|
--1--1--1-----1--1--1--1--1-----1--1--|
--3--3--3-----3--3--3--3--3-----3--3--|
--------------------------------------|


  |--3--|  |--3--|  |--3--|        
  E  E  E  E  E  E  E  E  E  Q     
-----------------------------0----|
-----------------------------0----|
-----------------------------6----|
--1--1--1-----1--1--1--1--1--6----|
--3--3--3-----3--3--3--3--3--4----|
----------------------------------|


  |--3--|  |--3--|  |--3--|  |--3--|   
  E  E  E  E  E  E  E  E  E  E  E  E   
--------------------------------------|
--------------------------------------|
--------------------------------------|
--1--1--1-----1--1--1--1--1-----1--1--|
--3--3--3-----3--3--3--3--3-----3--3--|
--------------------------------------|


  |--3--|  |--3--|  |--3--|        
  E  E  E  E  E  E  E  E  E  Q     
-----------------------------0----|
-----------------------------0----|
-----------------------------6----|
--1--1--1-----1--1--1--1--1--6----|
--3--3--3-----3--3--3--3--3--4----|
----------------------------------|


  |--3--|  |--3--|  |--3--|  |--3--|   
  E  E  E  E  E  E  E  E  E  E  E  E   
--------------------------------------|
--------------------------------------|
--------------------------------------|
--1--1--1-----1--1--1--1--1-----1--1--|
--3--3--3-----3--3--3--3--3-----3--3--|
--------------------------------------|


  |--3--|  |--3--|  |--3--|        
  E  E  E  E  E  E  E  E  E  Q     
-----------------------------0----|
-----------------------------0----|
-----------------------------6----|
--1--1--1-----1--1--1--1--1--6----|
--3--3--3-----3--3--3--3--3--4----|
----------------------------------|


  |--3--|  |--3--|  |--3--|  |--3--|   
  E  E  E  E  E  E  E  E  E  E  E  E   
--------------------------------------|
--------------------------------------|
--------------------------------------|
--1--1--1-----1--1--1--1--1-----1--1--|
--3--3--3-----3--3--3--3--3-----3--3--|
--------------------------------------|


  |--3--|  |--3--|  |--3--|        
  E  E  E  E  E  E  E  E  E  Q     
-----------------------------0----|
-----------------------------0----|
-----------------------------6----|
--1--1--1-----1--1--1--1--1--6----|
--3--3--3-----3--3--3--3--3--4----|
----------------------------------|


  W                   W                 
-------------------|-------------------|
-------------------|-------------------|
-------------------|-------------------|
-------------------|-------------------|
-------------------|-------------------|
-------------------|-------------------|


  W                   W                 
-------------------|-------------------|
-------------------|-------------------|
-------------------|-------------------|
-------------------|-------------------|
-------------------|-------------------|
-------------------|-------------------|


  W                   W                 
-------------------|-------------------|
-------------------|-------------------|
-------------------|-------------------|
-------------------|-------------------|
-------------------|-------------------|
-------------------|-------------------|


  W                   W                 
-------------------|-------------------|
-------------------|-------------------|
-------------------|-------------------|
-------------------|-------------------|
-------------------|-------------------|
-------------------|-------------------|


  W                   W                 
-------------------|-------------------|
-------------------|-------------------|
-------------------|-------------------|
-------------------|-------------------|
-------------------|-------------------|
-------------------|-------------------|


  W                   W                 
-------------------|-------------------|
-------------------|-------------------|
-------------------|-------------------|
-------------------|-------------------|
-------------------|-------------------|
-------------------|-------------------|


  |--3--|  |--3--|  |--3--|  |--3--|   
  E  E  E  E  E  E  E  E  E  E  E  E   
-----------0--0--0--0--0--0--0--0--0--|
-----------0--0--0--0--0--0--0--0--0--|
-----------1--1--1--1--1--1--1--1--1--|
-----------2--2--2--2--2--2--2--2--2--|
--1--1--1--2--2--2--2--2--2--2--2--2--|
-----------0--0--0--0--0--0--0--0--0--|


  |--3--|  |--3--|  |--3--|  |--3--|   
  E  E  E  E  E  E  E  E  E  E  E  E   
--0--0--0--0--0--0--0--0--0--0--0--0--|
--0--0--0--0--0--0--0--0--0--0--0--0--|
--1--1--1--1--1--1--1--1--1--1--1--1--|
--2--2--2--2--2--2--2--2--2--2--2--2--|
--2--2--2--2--2--2--2--2--2--2--2--2--|
--0--0--0--0--0--0--0--0--0--0--0--0--|


  |--3--|  |--3--|  |--3--|  |--3--|   
  E  E  E  E  E  E  E  E  E  E  E  E   
-----------0--0--0--0--0--0--0--0--0--|
-----------0--0--0--0--0--0--0--0--0--|
-----------1--1--1--1--1--1--1--1--1--|
-----------2--2--2--2--2--2--2--2--2--|
--1--1--1--2--2--2--2--2--2--2--2--2--|
-----------0--0--0--0--0--0--0--0--0--|


  |--3--|  |--3--|  |--3--|  |--3--|   
  E  E  E  E  E  E  E  E  E  E  E  E   
--0--0--0--0--0--0--0--0--0--0--0--0--|
--0--0--0--0--0--0--0--0--0--0--0--0--|
--1--1--1--1--1--1--1--1--1--1--1--1--|
--2--2--2--2--2--2--2--2--2--2--2--2--|
--2--2--2--2--2--2--2--2--2--2--2--2--|
--0--0--0--0--0--0--0--0--0--0--0--0--|


                 |--3--|   
  Q    Q    Q    E  E  E   
-------0------------------|
-------0------------------|
-------1------------------|
--6----2----3----7--L--7--|
--6----2----3----7--L--7--|
--4----0----1----5--L--5--|


                 |--3--|   
  Q    Q    Q    E  E  E   
-------0------------------|
-------0------------------|
-------1------------------|
--6----2----3----7--L--7--|
--6----2----3----7--L--7--|
--4----0----1----5--L--5--|


                 |--3--|   
  Q    Q    Q    E  E  E   
-------0------------------|
-------0------------------|
-------1------------------|
--6----2----3----7--L--7--|
--6----2----3----7--L--7--|
--4----0----1----5--L--5--|


                 |--3--|   
  Q    Q    Q    E  E  E   
-------0------------------|
-------0------------------|
-------1------------------|
--6----2----3----7--L--7--|
--6----2----3----7--L--7--|
--4----0----1----5--L--5--|


  |--3--|  |--3--|  |--3--|  |--3--|   
  E  E  E  E  E  E  E  E  E  E  E  E   
-----------0--0--0--0--0--0--0--0--0--|
-----------0--0--0--0--0--0--0--0--0--|
-----------1--1--1--1--1--1--1--1--1--|
-----------2--2--2--2--2--2--2--2--2--|
--1--1--1--2--2--2--2--2--2--2--2--2--|
-----------0--0--0--0--0--0--0--0--0--|


  |--3--|  |--3--|  |--3--|  |--3--|   
  E  E  E  E  E  E  E  E  E  E  E  E   
--0--0--0--0--0--0--0--0--0--0--0--0--|
--0--0--0--0--0--0--0--0--0--0--0--0--|
--1--1--1--1--1--1--1--1--1--1--1--1--|
--2--2--2--2--2--2--2--2--2--2--2--2--|
--2--2--2--2--2--2--2--2--2--2--2--2--|
--0--0--0--0--0--0--0--0--0--0--0--0--|


  |--3--|  |--3--|  |--3--|  |--3--|   
  E  E  E  E  E  E  E  E  E  E  E  E   
-----------0--0--0--0--0--0--0--0--0--|
-----------0--0--0--0--0--0--0--0--0--|
-----------1--1--1--1--1--1--1--1--1--|
-----------2--2--2--2--2--2--2--2--2--|
--1--1--1--2--2--2--2--2--2--2--2--2--|
-----------0--0--0--0--0--0--0--0--0--|


  |--3--|  |--3--|  |--3--|  |--3--|   
  E  E  E  E  E  E  E  E  E  E  E  E   
--0--0--0--0--0--0--0--0--0--0--0--0--|
--0--0--0--0--0--0--0--0--0--0--0--0--|
--1--1--1--1--1--1--1--1--1--1--1--1--|
--2--2--2--2--2--2--2--2--2--2--2--2--|
--2--2--2--2--2--2--2--2--2--2--2--2--|
--0--0--0--0--0--0--0--0--0--0--0--0--|


                  |--3--|   
  Q    Q    Q     E  E  E   
--4----0-------------------|
--4----0-------------------|
--4----1-------------------|
--6----2----3S----7--L--7--|
--6----2----3S----7--L--7--|
--4----0----1S----5--L--5--|


                  |--3--|   
  Q    Q    Q     E  E  E   
-------0-------------------|
-------0-------------------|
-------1-------------------|
--6----2----3S----7--L--7--|
--6----2----3S----7--L--7--|
--4----0----1S----5--L--5--|


                  |--3--|   
  Q    Q    Q     E  E  E   
-------0-------------------|
-------0-------------------|
-------1-------------------|
--6----2----3S----7--L--7--|
--6----2----3S----7--L--7--|
--4----0----1S----5--L--5--|


                  |--3--|   
  Q    Q    Q     E  E  E   
-------0-------------------|
-------0-------------------|
-------1-------------------|
--6----2----3S----7--L--7--|
--6----2----3S----7--L--7--|
--4----0----1S----5--L--5--|


  |--3--|  |---3--|  |--3--|  |--3--|   
  E  E  E  E  E   E  E  E  E  E  E  E   
---------------------6-----6--9--6-----|
--4--7--------7--10-----8-----------8--|
--------5--8---------------------------|
---------------------------------------|
---------------------------------------|
---------------------------------------|


  |---3--|   |---3--|             
  E  E   E   E  E   E   H         
--6--9--11-----------------------|
------------10--9----------------|
-------------------11~--L--------|
---------------------------------|
---------------------------------|
---------------------------------|


  H.             
----------------|
----------------|
--9b------------|
----------------|
----------------|
----------------|


               |------3------|        
  H.           Q     Q       Q        
-------------------------------------|
-------------------------------------|
--L------------9b----9pb~----9pb~----|
-------------------------------------|
-------------------------------------|
-------------------------------------|


            |--3--|   
  H         E  E  E   
---------------------|
---------------5--7--|
--9b--------9--------|
---------------------|
---------------------|
---------------------|


  W                 Q     
-------------------------|
--5~----------------L----|
-------------------------|
-------------------------|
-------------------------|
-------------------------|


   |---3--|   |---3--|   |---3--|   |--3--|  
   E   E  E   E   E  E   E   E  E   E  E  E  
--11---------11---------11---------10--------
------10---------10---------10---------9-----
----------8----------8----------8---------7--
---------------------------------------------
---------------------------------------------
---------------------------------------------


  |--3--|  |--3--|  |--3--|  |--3--|   
  E  E  E  E  E  E  E  E  E  E  E  E   
--9--------8--------8--------8--------|
-----8--------7--------7--------7-----|
--------6--------5--------5--------5--|
--------------------------------------|
--------------------------------------|
--------------------------------------|


   |---3--|   |---3--|   |---3--|   |--3--|  
   E   E  E   E   E  E   E   E  E   E  E  E  
--11---------11---------11---------10--------
------10---------10---------10---------9-----
----------8----------8----------8---------7--
---------------------------------------------
---------------------------------------------
---------------------------------------------


  |--3--|  |--3--|  |--3--|  |--3--|   
  E  E  E  E  E  E  E  E  E  E  E  E   
--9--------8--------8--------8--------|
-----8--------7--------7--------7-----|
--------6--------5--------5--------5--|
--------------------------------------|
--------------------------------------|
--------------------------------------|


   |---3--|   |---3--|   |---3--|   |--3--|  
   E   E  E   E   E  E   E   E  E   E  E  E  
--11---------11---------11---------10--------
------10---------10---------10---------9-----
----------8----------8----------8---------7--
---------------------------------------------
---------------------------------------------
---------------------------------------------


  |--3--|  |--3--|  |--3--|  |--3--|   
  E  E  E  E  E  E  E  E  E  E  E  E   
--9--------8--------8--------8--------|
-----8--------7--------7--------7-----|
--------6--------5--------5--------5--|
--------------------------------------|
--------------------------------------|
--------------------------------------|


  |--3--|  |---3--|  |--3--|  |--3--|   
  E  E  E  E  E   E  E  E  E  E  E  E   
---------------------6-----6--9--6-----|
--4--7--------7--10-----8-----------8--|
--------5--8---------------------------|
---------------------------------------|
---------------------------------------|
---------------------------------------|


  |---3--|  |---3--|   |---3--|  |---3--|   
  E  E   E  E   E  E   E  E   E  E   E  E   
--6--9--11--9------9-----------------------|
---------------11-----11--9--11--9------9--|
------------------------------------11-----|
-------------------------------------------|
-------------------------------------------|
-------------------------------------------|


  H.             
----------------|
----------------|
--9b------------|
----------------|
----------------|
----------------|


               |------3------|        
  H.           Q     Q       Q        
-------------------------------------|
-------------------------------------|
--L------------9b----9pb~----9pb~----|
-------------------------------------|
-------------------------------------|
-------------------------------------|


            |--3--|   
  H         E  E  E   
---------------------|
---------------5--7--|
--9b--------9--------|
---------------------|
---------------------|
---------------------|


  W                 Q     
-------------------------|
--5~----------------L----|
-------------------------|
-------------------------|
-------------------------|
-------------------------|


   |---3--|   |---3--|   |---3--|   |--3--|  
   E   E  E   E   E  E   E   E  E   E  E  E  
--11---------11---------11---------10--------
------10---------10---------10---------9-----
----------8----------8----------8---------7--
---------------------------------------------
---------------------------------------------
---------------------------------------------


  |--3--|  |--3--|  |--3--|  |--3--|   
  E  E  E  E  E  E  E  E  E  E  E  E   
--9--------8--------8--------8--------|
-----8--------7--------7--------7-----|
--------6--------5--------5--------5--|
--------------------------------------|
--------------------------------------|
--------------------------------------|


   |---3--|   |---3--|   |---3--|   |--3--|  
   E   E  E   E   E  E   E   E  E   E  E  E  
--11---------11---------11---------10--------
------10---------10---------10---------9-----
----------8----------8----------8---------7--
---------------------------------------------
---------------------------------------------
---------------------------------------------


  |--3--|  |--3--|  |--3--|  |--3--|   
  E  E  E  E  E  E  E  E  E  E  E  E   
--9--------8--------8--------8--------|
-----8--------7--------7--------7-----|
--------6--------5--------5--------5--|
--------------------------------------|
--------------------------------------|
--------------------------------------|


   |---3--|   |---3--|   |---3--|   |--3--|  
   E   E  E   E   E  E   E   E  E   E  E  E  
--11---------11---------11---------10--------
------10---------10---------10---------9-----
----------8----------8----------8---------7--
---------------------------------------------
---------------------------------------------
---------------------------------------------


  |--3--|  |--3--|  |--3--|  |--3--|   
  E  E  E  E  E  E  E  E  E  E  E  E   
--9--------8--------8--------8--------|
-----8--------7--------7--------7-----|
--------6--------5--------5--------5--|
--------------------------------------|
--------------------------------------|
--------------------------------------|


   |---3--|   |---3--|   |---3--|   |--3--|  
   E   E  E   E   E  E   E   E  E   E  E  E  
--11---------11---------11---------10--------
------10---------10---------10---------9-----
----------8----------8----------8---------7--
---------------------------------------------
---------------------------------------------
---------------------------------------------


  |--3--|  |--3--|  |--3--|  |--3--|   
  E  E  E  E  E  E  E  E  E  E  E  E   
--9--------8--------8--------8--------|
-----8--------7--------7--------7-----|
--------6--------5--------5--------5--|
--------------------------------------|
--------------------------------------|
--------------------------------------|


                                   |--3-|  |-
  H         E  S S  H.             Q    E  E 
--8~--------7--8-7---------------------------
-------------------10~------------10----8--L-
---------------------------------------------
---------------------------------------------
---------------------------------------------
---------------------------------------------


                                     W       
  H         S  S  S  S H.            H       
---------------------------------------------
---------------------------------------------
--7b-----------------------------------------
------------5h-7p-5p-0-----------------------
-----------------------6~------------5-------
---------------------------------------------


            |---3--|  |---3--|   |---3---|   
   Q.       E   E  E  E  E   E   E   E   E   
---------------------------------------------
---------------10--9-------------------------
--10~------10---------9----------------------
-------------------------9s--7s--6s--7s--6s--
---------------------------------------------
---------------------------------------------


              |---3---|   |---3--|           
   H          E   E   E   E   E  E   Q.      
-----------------------------12--L-----------
--12b--------12b--L--12--10---------12b------
---------------------------------------------
---------------------------------------------
---------------------------------------------
---------------------------------------------


                                        |----
    H         S   S  S  S H.            Q    
---------------------------------------------
---------------------------------------------
--5g9~--------9h-10p-9p-7-9~-----------------
----------------------------------------7----
---------------------------------------------
---------------------------------------------


              |--3--|                        
  S   S  S  S E  E  E  W                 Q   
---------------------------------------------
-----------------------7~----------------L---
--9h-10p-9p-7----7--9------------------------
--------------9------------------------------
---------------------------------------------
---------------------------------------------


                                          |--
   H         Q     H          H           E  
--17~-------------17~------------------------
-----------------------------17~--------(17)-
---------------------------------------------
---------------------------------------------
---------------------------------------------
---------------------------------------------


              |---3---|                      
   H          Q       E   W                 Q
--19b--------19br----17--19~-----------------
---------------------------------------------
---------------------------------------------
---------------------------------------------
---------------------------------------------
---------------------------------------------


      Q      S  S  S  S     E    E   E    E  
---------------------------------------------
--10g12~----13-12-10-------------------------
---------------------12----------------------
------------------------10g12s--10s--9s--10s-
---------------------------------------------
---------------------------------------------


  W                W                 
------------------------------------|
------------------------------------|
------------------------------------|
--2----------------L----------------|
------------------------------------|
------------------------------------|


  W                W                 
------------------------------------|
------------------------------------|
------------------------------------|
--L----------------L----------------|
------------------------------------|
------------------------------------|


  W                W                 
------------------------------------|
------------------------------------|
------------------------------------|
------------------------------------|
------------------------------------|
------------------------------------|


  W                W                 
------------------------------------|
------------------------------------|
------------------------------------|
------------------------------------|
------------------------------------|
------------------------------------|


  W                W                 
------------------------------------|
------------------------------------|
------------------------------------|
------------------------------------|
------------------------------------|
------------------------------------|


  W                W                 
------------------------------------|
------------------------------------|
------------------------------------|
------------------------------------|
------------------------------------|
------------------------------------|


  W                W                 
------------------------------------|
------------------------------------|
------------------------------------|
------------------------------------|
------------------------------------|
------------------------------------|


  W                W                 
------------------------------------|
------------------------------------|
------------------------------------|
------------------------------------|
------------------------------------|
------------------------------------|


  W                W                 
------------------------------------|
------------------------------------|
------------------------------------|
------------------------------------|
------------------------------------|
------------------------------------|


  W                W                 
------------------------------------|
------------------------------------|
------------------------------------|
------------------------------------|
------------------------------------|
------------------------------------|


  W                W                 
------------------------------------|
------------------------------------|
------------------------------------|
------------------------------------|
------------------------------------|
------------------------------------|


  W                W                 
------------------------------------|
------------------------------------|
------------------------------------|
------------------------------------|
------------------------------------|
------------------------------------|


  W                W                 
------------------------------------|
------------------------------------|
------------------------------------|
------------------------------------|
------------------------------------|
------------------------------------|


  W                W                 
------------------------------------|
------------------------------------|
------------------------------------|
------------------------------------|
------------------------------------|
------------------------------------|


  ^                                          
  Q    E  E  Q    E  E  Q    E   E   H       
-------0----------------0--------------------
--3---------------3----------3---------------
--2----------1-------1----------(1)--L-------
--0-------0----------------------------------
---------------------------------------------
---------------------------------------------


  ^                                          
  Q    E  E  Q    E  E  Q    E  E  H         
-------0----------------0-------4--L--------|
--3---------------3----------3--------------|
--2----------1-------1----------------------|
--0-------0---------------------------------|
--------------------------------------------|
--------------------------------------------|


  ^                                          
  Q    E  E  Q    E  E  Q    E  E  H         
-------0----------------0-------------------|
--3---------------3----------3--------------|
--2----------1-------1----------1--L--------|
--0-------0---------------------------------|
--------------------------------------------|
--------------------------------------------|


  ^                                          
  Q    E  E  Q    E  E  Q    E  E  H         
-------0----------------0-------4--L--------|
--3---------------3----------3--------------|
--2----------1-------1----------------------|
--0-------0---------------------------------|
--------------------------------------------|
--------------------------------------------|


  ^                                          
  Q    E  E  Q    E  E  Q    E  E  H         
-------0----------------0-------------------|
--3---------------3----------3--------------|
--2----------1-------1----------1--L--------|
--0-------0---------------------------------|
--------------------------------------------|
--------------------------------------------|


  ^                                          
  Q    E  E  Q    E  E  Q    E  E  H         
-------0----------------0-------4--L--------|
--3---------------3----------3--------------|
--2----------1-------1----------------------|
--0-------0---------------------------------|
--------------------------------------------|
--------------------------------------------|


  ^                                          
  Q    E  E  Q    E  E  Q    E  E  H         
-------0----------------0-------------------|
--3---------------3----------3--------------|
--2----------1-------1----------1--L--------|
--0-------0---------------------------------|
--------------------------------------------|
--------------------------------------------|


  ^                                        
  Q    E  E  Q    E  E  Q    E  E  Q.      
-------0----------------0-------4--L------|
--3---------------3----------3------------|
--2----------1-------1--------------------|
--0-------0-------------------------------|
------------------------------------------|
------------------------------------------|


  time signature (bars 151-168) corrected by 
  \1/                                        
  W                                          
--L------------------------------------------
--L------------------------------------------
--L------------------------------------------
--L------------------------------------------
---------------------------------------------
---------------------------------------------


  W                   W                 
--L----------------|-------------------|
--L----------------|-------------------|
--L----------------|-------------------|
--L----------------|-------------------|
-------------------|-------------------|
-------------------|-------------------|


  W                   W                 
-------------------|-------------------|
-------------------|-------------------|
-------------------|-------------------|
-------------------|-------------------|
-------------------|-------------------|
-------------------|-------------------|


  W                   W                 
-------------------|-------------------|
-------------------|-------------------|
-------------------|-------------------|
-------------------|-------------------|
-------------------|-------------------|
-------------------|-------------------|


  W                   W                 
-------------------|-------------------|
-------------------|-------------------|
-------------------|-------------------|
-------------------|-------------------|
-------------------|-------------------|
-------------------|-------------------|


  W                   W                 
-------------------|-------------------|
-------------------|-------------------|
-------------------|-------------------|
-------------------|-------------------|
-------------------|-------------------|
-------------------|-------------------|


  W                   W                 
-------------------|-------------------|
-------------------|-------------------|
-------------------|-------------------|
-------------------|-------------------|
-------------------|-------------------|
-------------------|-------------------|


  W                   W                 
-------------------|-------------------|
-------------------|-------------------|
-------------------|-------------------|
-------------------|-------------------|
-------------------|-------------------|
-------------------|-------------------|


  W                   W                 
-------------------|-------------------|
-------------------|-------------------|
-------------------|-------------------|
-------------------|-------------------|
-------------------|-------------------|
-------------------|-------------------|


  W                 
-------------------|
-------------------|
-------------------|
-------------------|
-------------------|
-------------------|


  E.  E.  E  Q.     Q    Q    Q.     Q     
--0---0---0--L------0----0----L------L----|
--0---0---0--L------0----L----L------L----|
--6---6---3--L------3----L----3------L----|
--5---5---2--L------2----L----L------L----|
--4---4---1--L------1----L----L------L----|
--0---0---0--L------0----L----L------L----|


  |----3----|               
  Q    Q    Q    Q    Q     
---------------------------|
---------------------------|
--8----7---------7----8----|
------------6--------------|
--6----5---------5----6----|
------------4--------------|


       PM PM          PM PM        PM PM     
  Q    S  S   Q.      S  S   Q     S  S   H. 
-------------(1)------------(3)----------(0)-
-------------(1)------------(3)----------(0)-
--------------2--------------4------------1--
--7-----------3--------------5------------2--
--7-----------3--------------5------------2--
--5----0--0---1-------0--0---3-----0--0---0--


  E.  E.  Q    H        Q    Q.     Q     
--0---0---0----L--------0----L------L----|
--0---0---0----L--------L----L------L----|
--6---6---3----L--------L----3------L----|
--5---5---2----L--------L----L------L----|
--4---4---1----L--------L----L------L----|
--0---0---0----L--------L----L------L----|


  |----3----|               
  Q    Q    Q    Q    Q     
---------------------------|
---------------------------|
--8----7---------7----8----|
------------6--------------|
--6----5---------5----6----|
------------4--------------|


  E.  S S S E.  E.  E.  S S S E.  E.  Q    Q 
---------------------------------------------
---------------------------------------------
--9---9-9-9-9---8---9---9-9-9-9---8---9----8-
---------------------------------------------
--7---7-7-7-7---6---7---7-7-7-7---6---7----6-
---------------------------------------------


  S S S S S S S S S S S S S S S   S S S S S S
---------------------------------------------
---------------------------------------------
---------------------------------------------
---------------------------------------------
--------------------------------4g5-5-5-6-6-6
--4-4-4-3-3-3-4-4-4-0-0-0-4-4-4--------------


  E.  E.  Q    H        Q    Q.     Q     
--0---0---0----L--------0----L------L----|
--0---0---0----L--------L----L------L----|
--6---6---3----L--------L----3------L----|
--5---5---2----L--------L----L------L----|
--4---4---1----L--------L----L------L----|
--0---0---0----L--------L----L------L----|


  |----3----|               
  Q    Q    Q    Q    Q     
---------------------------|
---------------------------|
--8----7---------7----8----|
------------6--------------|
--6----5---------5----6----|
------------4--------------|


       PM PM          PM PM        PM PM     
  Q    S  S   Q.      S  S   Q     S  S   H. 
-------------(1)------------(3)----------(0)-
-------------(1)------------(3)----------(0)-
--------------2--------------4------------1--
--7-----------3--------------5------------2--
--7-----------3--------------5------------2--
--5----0--0---1-------0--0---3-----0--0---0--


  E.  E.  Q    H        Q    Q.     Q     
--0---0---0----L--------0----L------L----|
--0---0---0----L--------L----L------L----|
--6---6---3----L--------L----3------L----|
--5---5---2----L--------L----L------L----|
--4---4---1----L--------L----L------L----|
--0---0---0----L--------L----L------L----|


  |----3----|               
  Q    Q    Q    Q    Q     
---------------------------|
---------------------------|
--8----7---------7----8----|
------------6--------------|
--6----5---------5----6----|
------------4--------------|


  E.  S S S E.  E.  E.  S S S E.  E.  Q    Q 
---------------------------------------------
---------------------------------------------
--9---9-9-9-9---8---9---9-9-9-9---8---9----8-
---------------------------------------------
--7---7-7-7-7---6---7---7-7-7-7---6---7----6-
---------------------------------------------


  E.  S S S E.  E.  E.  S S S E.  E.  Q    Q 
---------------------------------------------
---------------------------------------------
--9---9-9-9-9---8---9---9-9-9-9---8---9----8-
---------------------------------------------
--7---7-7-7-7---6---7---7-7-7-7---6---7----6-
---------------------------------------------


  S S S S S S S S S S S S S S S   S S S S S S
---------------------------------------------
---------------------------------------------
---------------------------------------------
---------------------------------------------
--------------------------------4g5-5-5-6-6-6
--4-4-4-3-3-3-4-4-4-0-0-0-4-4-4--------------


  S S S S S S S S S S S S S S S   S S S S S S
---------------------------------------------
---------------------------------------------
---------------------------------------------
---------------------------------------------
--------------------------------4g5-5-5-6-6-6
--4-4-4-3-3-3-4-4-4-0-0-0-4-4-4--------------


  >           >           >           >      
  S S S S S S S S S S S S S S S S S S S S S S
---------------------------------------------
---------------------------------------------
--5-5-5-5-5-5-4-4-4-4-4-4-4-4-4-4-4-4-4-4-4-4
---------------------------------------------
--3-3-3-3-3-3-2-2-2-2-2-2-2-2-2-2-2-2-2-2-2-2
---------------------------------------------


  >           >           >           >      
  S S S S S S S S S S S S S S S S S S S S S S
---------------------------------------------
---------------------------------------------
--5-5-5-5-5-5-4-4-4-4-4-4-4-4-4-4-4-4-4-4-4-4
---------------------------------------------
--3-3-3-3-3-3-2-2-2-2-2-2-2-2-2-2-2-2-2-2-2-2
---------------------------------------------


  >           >           >           >      
  S S S S S S S S S S S S S S S S S S S S S S
---------------------------------------------
---------------------------------------------
--5-5-5-5-5-5-4-4-4-4-4-4-4-4-4-4-4-4-4-4-4-4
---------------------------------------------
--3-3-3-3-3-3-2-2-2-2-2-2-2-2-2-2-2-2-2-2-2-2
---------------------------------------------


  >           >           >           >      
  S S S S S S S S S S S S S S S S S S S S S S
---------------------------------------------
---------------------------------------------
--5-5-5-5-5-5-4-4-4-4-4-4-4-4-4-4-4-4-4-4-4-4
---------------------------------------------
--3-3-3-3-3-3-2-2-2-2-2-2-2-2-2-2-2-2-2-2-2-2
---------------------------------------------


  >           >           >           >      
  S S S S S S S S S S S S S S S S S S S S S S
---------------------------------------------
---------------------------------------------
--5-5-5-5-5-5-4-4-4-4-4-4-4-4-4-4-4-4-4-4-4-4
---------------------------------------------
--3-3-3-3-3-3-2-2-2-2-2-2-2-2-2-2-2-2-2-2-2-2
---------------------------------------------


  >           >           >           >      
  S S S S S S S S S S S S S S S S S S S S S S
---------------------------------------------
---------------------------------------------
--5-5-5-5-5-5-4-4-4-4-4-4-4-4-4-4-4-4-4-4-4-4
---------------------------------------------
--3-3-3-3-3-3-2-2-2-2-2-2-2-2-2-2-2-2-2-2-2-2
---------------------------------------------


  >           >           >           >      
  S S S S S S S S S S S S S S S S S S S S S S
---------------------------------------------
---------------------------------------------
--5-5-5-5-5-5-4-4-4-4-4-4-4-4-4-4-4-4-4-4-4-4
---------------------------------------------
--3-3-3-3-3-3-2-2-2-2-2-2-2-2-2-2-2-2-2-2-2-2
---------------------------------------------


  >           >           >           >      
  S S S S S S S S S S S S S S S S S S S S S S
---------------------------------------------
---------------------------------------------
--5-5-5-5-5-5-4-4-4-4-4-4-4-4-4-4-4-4-4-4-4-4
---------------------------------------------
--3-3-3-3-3-3-2-2-2-2-2-2-2-2-2-2-2-2-2-2-2-2
---------------------------------------------


--------------------------------------------------
--------------------------------------------------



                       


                                        Opeth
Guitar 2



     H           W                H         
E||-----------|----------------------------|
B||-----------|----------------------------|
G||-----------|----------------------------|
D||-----------|----------------------------|
A||-----------|----------------------------|
E||-----------|----------------------------|


  W                H         
----------------------------|
----------------------------|
----------------------------|
----------------------------|
----------------------------|
----------------------------|


  W                H         
----------------------------|
----------------------------|
----------------------------|
----------------------------|
----------------------------|
----------------------------|


  W                   H         
-------------------|-----------|
-------------------|-----------|
-------------------|-----------|
-------------------|-----------|
-------------------|-----------|
-------------------|-----------|


  |--3--|  |--3--|  |--3--|  |--3--|   
  E  E  E  E  E  E  E  E  E  E  E  E   
-----------0--0--0--0--0--0--0--0--0--|
-----------0--0--0--0--0--0--0--0--0--|
-----------1--1--1--1--1--1--1--1--1--|
-----------2--2--2--2--2--2--2--2--2--|
--1--1--1--2--2--2--2--2--2--2--2--2--|
-----------0--0--0--0--0--0--0--0--0--|


  |--3--|  |--3--|  |--3--|  |--3--|   
  E  E  E  E  E  E  E  E  E  E  E  E   
--0--0--0--0--0--0--0--0--0--0--0--0--|
--0--0--0--0--0--0--0--0--0--0--0--0--|
--1--1--1--1--1--1--1--1--1--1--1--1--|
--2--2--2--2--2--2--2--2--2--2--2--2--|
--2--2--2--2--2--2--2--2--2--2--2--2--|
--0--0--0--0--0--0--0--0--0--0--0--0--|


  |--3--|  |--3--|  |--3--|  |--3--|   
  E  E  E  E  E  E  E  E  E  E  E  E   
-----------0--0--0--0--0--0--0--0--0--|
-----------0--0--0--0--0--0--0--0--0--|
-----------1--1--1--1--1--1--1--1--1--|
-----------2--2--2--2--2--2--2--2--2--|
--1--1--1--2--2--2--2--2--2--2--2--2--|
-----------0--0--0--0--0--0--0--0--0--|


  |--3--|  |--3--|  |--3--|  |--3--|   
  E  E  E  E  E  E  E  E  E  E  E  E   
--0--0--0--0--0--0--0--0--0--0--0--0--|
--0--0--0--0--0--0--0--0--0--0--0--0--|
--1--1--1--1--1--1--1--1--1--1--1--1--|
--2--2--2--2--2--2--2--2--2--2--2--2--|
--2--2--2--2--2--2--2--2--2--2--2--2--|
--0--0--0--0--0--0--0--0--0--0--0--0--|


                 |--3--|   
  Q    Q    Q    E  E  E   
--4-----------------------|
--4-----------------------|
--4-----------------------|
--6----2----3----7--L--7--|
--6----2----3----7--L--7--|
--4----0----1----5--L--5--|


                 |--3--|   
  Q    Q    Q    E  E  E   
--4-----------------------|
--4-----------------------|
--4-----------------------|
--6----2----3----7--L--7--|
--6----2----3----7--L--7--|
--4----0----1----5--L--5--|


                 |--3--|   
  Q    Q    Q    E  E  E   
--4-----------------------|
--4-----------------------|
--4-----------------------|
--6----2----3----7--L--7--|
--6----2----3----7--L--7--|
--4----0----1----5--L--5--|


                 |--3--|   
  Q    Q    Q    E  E  E   
--4-----------------------|
--4-----------------------|
--4-----------------------|
--6----2----3----7--L--7--|
--6----2----3----7--L--7--|
--4----0----1----5--L--5--|


  |--3--|  |--3--|  |--3--|  |--3--|   
  E  E  E  E  E  E  E  E  E  E  E  E   
-----------0--0--0--0--0--0--0--0--0--|
-----------0--0--0--0--0--0--0--0--0--|
-----------1--1--1--1--1--1--1--1--1--|
-----------2--2--2--2--2--2--2--2--2--|
--1--1--1--2--2--2--2--2--2--2--2--2--|
-----------0--0--0--0--0--0--0--0--0--|


  |--3--|  |--3--|  |--3--|  |--3--|   
  E  E  E  E  E  E  E  E  E  E  E  E   
--0--0--0--0--0--0--0--0--0--0--0--0--|
--0--0--0--0--0--0--0--0--0--0--0--0--|
--1--1--1--1--1--1--1--1--1--1--1--1--|
--2--2--2--2--2--2--2--2--2--2--2--2--|
--2--2--2--2--2--2--2--2--2--2--2--2--|
--0--0--0--0--0--0--0--0--0--0--0--0--|


  |--3--|  |--3--|  |--3--|  |--3--|   
  E  E  E  E  E  E  E  E  E  E  E  E   
-----------0--0--0--0--0--0--0--0--0--|
-----------0--0--0--0--0--0--0--0--0--|
-----------1--1--1--1--1--1--1--1--1--|
-----------2--2--2--2--2--2--2--2--2--|
--1--1--1--2--2--2--2--2--2--2--2--2--|
-----------0--0--0--0--0--0--0--0--0--|


  |--3--|  |--3--|  |--3--|  |--3--|   
  E  E  E  E  E  E  E  E  E  E  E  E   
--0--0--0--0--0--0--0--0--0--0--0--0--|
--0--0--0--0--0--0--0--0--0--0--0--0--|
--1--1--1--1--1--1--1--1--1--1--1--1--|
--2--2--2--2--2--2--2--2--2--2--2--2--|
--2--2--2--2--2--2--2--2--2--2--2--2--|
--0--0--0--0--0--0--0--0--0--0--0--0--|


                  |--3--|   
  Q    Q    Q     E  E  E   
--4------------------------|
--4------------------------|
--4------------------------|
--6----2----3S----7--L--7--|
--6----2----3S----7--L--7--|
--4----0----1S----5--L--5--|


                  |--3--|   
  Q    Q    Q     E  E  E   
--4------------------------|
--4------------------------|
--4------------------------|
--6----2----3S----7--L--7--|
--6----2----3S----7--L--7--|
--4----0----1S----5--L--5--|


                  |--3--|   
  Q    Q    Q     E  E  E   
--4------------------------|
--4------------------------|
--4------------------------|
--6----2----3S----7--L--7--|
--6----2----3S----7--L--7--|
--4----0----1S----5--L--5--|


                  |--3--|   
  Q    Q    Q     E  E  E   
--4------------------------|
--4------------------------|
--4------------------------|
--6----2----3S----7--L--7--|
--6----2----3S----7--L--7--|
--4----0----1S----5--L--5--|


   |---3---|  |---3---|   |---3---|  |---3---
   E   E   E  E   E   E   E   E   E  E   E   
---8---8---8------8---8---8---8---8------8---
---8---8---8------8---8---8---8---8------8---
---9---9---9------9---9---9---9---9------9---
--10--10--10-----10--10--10--10--10-----10--1
--10--10--10-----10--10--10--10--10-----10--1
---8---8---8------8---8---8---8---8------8---


   |---3---|  |---3---|   |---3---|         
   E   E   E  E   E   E   E   E   E   Q     
---8---8---8------8---8---8---8---8--------|
---8---8---8------8---8---8---8---8--------|
---9---9---9------9---9---9---9---9--------|
--10--10--10-----10--10--10--10--10--11----|
--10--10--10-----10--10--10--10--10--11----|
---8---8---8------8---8---8---8---8---9----|


   |---3---|  |---3---|   |---3---|  |---3---
   E   E   E  E   E   E   E   E   E  E   E   
---8---8---8------8---8---8---8---8------8---
---8---8---8------8---8---8---8---8------8---
---9---9---9------9---9---9---9---9------9---
--10--10--10-----10--10--10--10--10-----10--1
--10--10--10-----10--10--10--10--10-----10--1
---8---8---8------8---8---8---8---8------8---


   |---3---|  |---3---|   |---3---|         
   E   E   E  E   E   E   E   E   E   Q     
---8---8---8------8---8---8---8---8--------|
---8---8---8------8---8---8---8---8--------|
---9---9---9------9---9---9---9---9--------|
--10--10--10-----10--10--10--10--10--11----|
--10--10--10-----10--10--10--10--10--11----|
---8---8---8------8---8---8---8---8---9----|


   |---3---|  |---3---|   |---3---|  |---3---
   E   E   E  E   E   E   E   E   E  E   E   
---8---8---8------8---8---8---8---8------8---
---8---8---8------8---8---8---8---8------8---
---9---9---9------9---9---9---9---9------9---
--10--10--10-----10--10--10--10--10-----10--1
--10--10--10-----10--10--10--10--10-----10--1
---8---8---8------8---8---8---8---8------8---


   |---3---|  |---3---|   |---3---|         
   E   E   E  E   E   E   E   E   E   Q     
---8---8---8------8---8---8---8---8--------|
---8---8---8------8---8---8---8---8--------|
---9---9---9------9---9---9---9---9--------|
--10--10--10-----10--10--10--10--10--11----|
--10--10--10-----10--10--10--10--10--11----|
---8---8---8------8---8---8---8---8---9----|


   |---3---|  |---3---|   |---3---|  |---3---
   E   E   E  E   E   E   E   E   E  E   E   
---8---8---8------8---8---8---8---8------8---
---8---8---8------8---8---8---8---8------8---
---9---9---9------9---9---9---9---9------9---
--10--10--10-----10--10--10--10--10-----10--1
--10--10--10-----10--10--10--10--10-----10--1
---8---8---8------8---8---8---8---8------8---


   |---3---|  |---3---|   |---3---|         
   E   E   E  E   E   E   E   E   E   Q     
---8---8---8------8---8---8---8---8--------|
---8---8---8------8---8---8---8---8--------|
---9---9---9------9---9---9---9---9--------|
--10--10--10-----10--10--10--10--10--11----|
--10--10--10-----10--10--10--10--10--11----|
---8---8---8------8---8---8---8---8---9----|


   |---3---|  |---3---|   |---3---|  |---3---
   E   E   E  E   E   E   E   E   E  E   E   
---8---8---8------8---8---8---8---8------8---
---8---8---8------8---8---8---8---8------8---
---9---9---9------9---9---9---9---9------9---
--10--10--10-----10--10--10--10--10-----10--1
--10--10--10-----10--10--10--10--10-----10--1
---8---8---8------8---8---8---8---8------8---


   |---3---|  |---3---|   |---3---|         
   E   E   E  E   E   E   E   E   E   Q     
---8---8---8------8---8---8---8---8--------|
---8---8---8------8---8---8---8---8--------|
---9---9---9------9---9---9---9---9--------|
--10--10--10-----10--10--10--10--10--11----|
--10--10--10-----10--10--10--10--10--11----|
---8---8---8------8---8---8---8---8---9----|


   |---3---|  |---3---|   |---3---|  |---3---
   E   E   E  E   E   E   E   E   E  E   E   
---8---8---8------8---8---8---8---8------8---
---8---8---8------8---8---8---8---8------8---
---9---9---9------9---9---9---9---9------9---
--10--10--10-----10--10--10--10--10-----10--1
--10--10--10-----10--10--10--10--10-----10--1
---8---8---8------8---8---8---8---8------8---


   |---3---|  |---3---|   |---3---|         
   E   E   E  E   E   E   E   E   E   Q     
---8---8---8------8---8---8---8---8--------|
---8---8---8------8---8---8---8---8--------|
---9---9---9------9---9---9---9---9--------|
--10--10--10-----10--10--10--10--10--11----|
--10--10--10-----10--10--10--10--10--11----|
---8---8---8------8---8---8---8---8---9----|


   |---3---|  |---3---|   |---3---|  |---3---
   E   E   E  E   E   E   E   E   E  E   E   
---8---8---8------8---8---8---8---8------8---
---8---8---8------8---8---8---8---8------8---
---9---9---9------9---9---9---9---9------9---
--10--10--10-----10--10--10--10--10-----10--1
--10--10--10-----10--10--10--10--10-----10--1
---8---8---8------8---8---8---8---8------8---


   |---3---|  |---3---|   |---3---|         
   E   E   E  E   E   E   E   E   E   Q     
---8---8---8------8---8---8---8---8--------|
---8---8---8------8---8---8---8---8--------|
---9---9---9------9---9---9---9---9--------|
--10--10--10-----10--10--10--10--10--11----|
--10--10--10-----10--10--10--10--10--11----|
---8---8---8------8---8---8---8---8---9----|


  PM PM PM PM PM PM PM                 
  |--3--|  |--3--|  |--3--|  |--3--|   
  E  E  E  E  E  E  E  E  E  E  E  E   
--------------------------------------|
--------------------------------------|
--------------------------------------|
-----2--------3-----------------------|
--------3--2-----0--0--2--L-----------|
--0-----------------------0--4--L--0--|


  |--3--|       |--3--|  |---3---|   
  E  E  E  Q    E  E  E  E   E   E   
------------------------------------|
------------------------------------|
------------------------------------|
-----------6-------------6s--7s--6--|
------------------------------------|
--4--L--4--4----4--L--4--4s--5s--4--|


  |--3--|       |--3--|  |---3---|   
  E  E  E  Q    E  E  E  E   E   E   
------------------------------------|
------------------------------------|
------------------------------------|
-----------6-------------6s--7s--6--|
------------------------------------|
--4--L--4--4----4--L--4--4s--5s--4--|


  |--3--|       |--3--|  |--3--|   
  E  E  E  Q    E  E  E  E  E  E   
----------------------------------|
----------------------------------|
----------------------------------|
-----------6----------------------|
----------------------------------|
--4--L--4--4----4--L--4--4--5--7--|


  |--3--|  |--3--|  |--3--|  |--3--|   
  E  E  E  E  E  E  E  E  E  E  E  E   
--------------------------------------|
--------------------------------------|
-----------------------------------1--|
--3--------------------------------2--|
--------5--6-----5-----------------2--|
-----7--------7-----6--5--0--6--3--0--|


          PM PM PM PM      PM PM PM  
  |--3-|  |--3--|  |--3-|  |--3--|   
  Q    E  E  E  E  Q    E  E  E  E   
------------------------------------|
-------------------5----5-----------|
--L----1-----------4----4-----------|
--L----2-----------2----2-----------|
--L----2-----------2----2-----------|
--L----0--0--0--0--0----0--0--0--0--|


  PM      PM PM              
  |--3-|  |--3--|            
  Q    E  E  E  E  H         
----------------------------|
--5----5--------------------|
--4----4--------3--L--------|
--2----2--------------------|
--2----2--------1--L--------|
--0----0--0--0--------------|


       PM PM PM      PM PM PM  
       |--3--|       |--3--|   
  Q    E  E  E  Q    E  E  E   
--0---------------------------|
--0---------------------------|
--1---------------------------|
--2-------------3-------------|
--2-------------3-------------|
--0----0--0--0--1----0--0--0--|


       |--3--|   |--3--|  |--3--|   
  Q    E  E  E   E  E  E  E  E  E   
-----------------------------------|
-----------------------------------|
-----------------------------------|
--5----2--0--3~--L--2--------------|
--4--------------------5-----------|
--3-----------------------3--0--0--|


  |--3--|       |--3--|  |---3---|   
  E  E  E  Q    E  E  E  E   E   E   
------------------------------------|
------------------------------------|
------------------------------------|
-----------6-------------6s--7s--6--|
------------------------------------|
--4--L--4--4----4--L--4--4s--5s--4--|


  |--3--|       |--3--|  |---3---|   
  E  E  E  Q    E  E  E  E   E   E   
------------------------------------|
------------------------------------|
------------------------------------|
-----------6-------------6s--7s--6--|
------------------------------------|
--4--L--4--4----4--L--4--4s--5s--4--|


  |--3--|       |--3--|  |--3--|   
  E  E  E  Q    E  E  E  E  E  E   
----------------------------------|
----------------------------------|
----------------------------------|
-----------6----------------------|
----------------------------------|
--4--L--4--4----4--L--4--4--5--7--|


  |--3--|  |--3--|  |--3--|  |--3--|   
  E  E  E  E  E  E  E  E  E  E  E  E   
--------------------------------------|
--------------------------------------|
-----------------------------------1--|
--3--------------------------------2--|
--------5--6-----5-----------------2--|
-----7--------7-----6--5--0--6--3--0--|


          PM PM PM PM      PM PM PM  
  |--3-|  |--3--|  |--3-|  |--3--|   
  Q    E  E  E  E  Q    E  E  E  E   
-------------------0----0-----------|
-------------------0----0-----------|
--L----1-----------1----1-----------|
--L----2-----------2----2-----------|
--L----2-----------2----2-----------|
--L----0--0--0--0--0----0--0--0--0--|


  PM      PM PM              
  |--3-|  |--3--|            
  Q    E  E  E  E  H         
--0----0--------0--L--------|
--0----0--------0--L--------|
--1----1--------3--L--------|
--2----2--------2--L--------|
--2----2--------1--L--------|
--0----0--0--0--0--L--------|


       PM PM PM      PM PM PM  
       |--3--|       |--3--|   
  Q    E  E  E  Q    E  E  E   
--0---------------------------|
--0---------------------------|
--1---------------------------|
--2---------------------------|
--2---------------------------|
--0----0--0--0--1----0--0--0--|


        |--3--|   |--3--|  |---3--|   
  Q     E  E  E   E  E  E  E   E  E   
-------------------------------------|
-------------------------------------|
-------------------------------------|
--3/----2--0--3~--L--2---------------|
------------------------5------------|
--1/-----------------------3S--0--0--|


   with flanger with flanger                 
   |------------3------------|  |---3---|   |
   E            E            E  E   E   E   E
---------------------------------------------
---------------------------------------------
---------------------------------------------
--10-----------10-----------10-----10--10--10
--10-----------10-----------10-----10--10--10
---8------------8------------8------8---8---8


   |---3---|  |---3---|   |---3---|         
   E   E   E  E   E   E   E   E   E   Q     
-------------------------------------------|
-------------------------------------------|
-------------------------------------------|
--10--10--10-----10--10--10--10--10--11----|
--10--10--10-----10--10--10--10--10--11----|
---8---8---8------8---8---8---8---8---9----|


   |---3---|  |---3---|   |---3---|  |---3---
   E   E   E  E   E   E   E   E   E  E   E   
---8---8---8------8---8---8---8---8------8---
---8---8---8------8---8---8---8---8------8---
---9---9---9------9---9---9---9---9------9---
--10--10--10-----10--10--10--10--10-----10--1
--10--10--10-----10--10--10--10--10-----10--1
---8---8---8------8---8---8---8---8------8---


   |---3---|  |---3---|   |---3---|         
   E   E   E  E   E   E   E   E   E   Q     
---8---8---8------8---8---8---8---8--------|
---8---8---8------8---8---8---8---8--------|
---9---9---9------9---9---9---9---9--------|
--10--10--10-----10--10--10--10--10--11----|
--10--10--10-----10--10--10--10--10--11----|
---8---8---8------8---8---8---8---8---9----|


   |---3---|  |---3---|   |---3---|  |---3---
   E   E   E  E   E   E   E   E   E  E   E   
---8---8---8------8---8---8---8---8------8---
---8---8---8------8---8---8---8---8------8---
---9---9---9------9---9---9---9---9------9---
--10--10--10-----10--10--10--10--10-----10--1
--10--10--10-----10--10--10--10--10-----10--1
---8---8---8------8---8---8---8---8------8---


   |---3---|  |---3---|   |---3---|         
   E   E   E  E   E   E   E   E   E   Q     
---8---8---8------8---8---8---8---8--------|
---8---8---8------8---8---8---8---8--------|
---9---9---9------9---9---9---9---9--------|
--10--10--10-----10--10--10--10--10--11----|
--10--10--10-----10--10--10--10--10--11----|
---8---8---8------8---8---8---8---8---9----|


   |---3---|  |---3---|   |---3---|  |---3---
   E   E   E  E   E   E   E   E   E  E   E   
---8---8---8------8---8---8---8---8------8---
---8---8---8------8---8---8---8---8------8---
---9---9---9------9---9---9---9---9------9---
--10--10--10-----10--10--10--10--10-----10--1
--10--10--10-----10--10--10--10--10-----10--1
---8---8---8------8---8---8---8---8------8---


   |---3---|  |---3---|   |---3---|         
   E   E   E  E   E   E   E   E   E   Q     
---8---8---8------8---8---8---8---8--------|
---8---8---8------8---8---8---8---8--------|
---9---9---9------9---9---9---9---9--------|
--10--10--10-----10--10--10--10--10--11----|
--10--10--10-----10--10--10--10--10--11----|
---8---8---8------8---8---8---8---8---9----|


   |---3---|  |---3---|   |---3---|  |---3---
   E   E   E  E   E   E   E   E   E  E   E   
---8---8---8------8---8---8---8---8------8---
---8---8---8------8---8---8---8---8------8---
---9---9---9------9---9---9---9---9------9---
--10--10--10-----10--10--10--10--10-----10--1
--10--10--10-----10--10--10--10--10-----10--1
---8---8---8------8---8---8---8---8------8---


   |---3---|  |---3---|   |---3---|         
   E   E   E  E   E   E   E   E   E   Q     
---8---8---8------8---8---8---8---8--------|
---8---8---8------8---8---8---8---8--------|
---9---9---9------9---9---9---9---9--------|
--10--10--10-----10--10--10--10--10--11----|
--10--10--10-----10--10--10--10--10--11----|
---8---8---8------8---8---8---8---8---9----|


   |---3---|  |---3---|   |---3---|  |---3---
   E   E   E  E   E   E   E   E   E  E   E   
---8---8---8------8---8---8---8---8------8---
---8---8---8------8---8---8---8---8------8---
---9---9---9------9---9---9---9---9------9---
--10--10--10-----10--10--10--10--10-----10--1
--10--10--10-----10--10--10--10--10-----10--1
---8---8---8------8---8---8---8---8------8---


   |---3---|  |---3---|   |---3---|         
   E   E   E  E   E   E   E   E   E   Q     
---8---8---8------8---8---8---8---8--------|
---8---8---8------8---8---8---8---8--------|
---9---9---9------9---9---9---9---9--------|
--10--10--10-----10--10--10--10--10--11----|
--10--10--10-----10--10--10--10--10--11----|
---8---8---8------8---8---8---8---8---9----|


  W                   W                 
-------------------|-------------------|
-------------------|-------------------|
-------------------|-------------------|
-------------------|-------------------|
-------------------|-------------------|
-------------------|-------------------|


  W                   W                 
-------------------|-------------------|
-------------------|-------------------|
-------------------|-------------------|
-------------------|-------------------|
-------------------|-------------------|
-------------------|-------------------|


  W                   W                 
-------------------|-------------------|
-------------------|-------------------|
-------------------|-------------------|
-------------------|-------------------|
-------------------|-------------------|
-------------------|-------------------|


  W                   W                 
-------------------|-------------------|
-------------------|-------------------|
-------------------|-------------------|
-------------------|-------------------|
-------------------|-------------------|
-------------------|-------------------|


  W                   W                 
-------------------|-------------------|
-------------------|-------------------|
-------------------|-------------------|
-------------------|-------------------|
-------------------|-------------------|
-------------------|-------------------|


  W                   W                 
-------------------|-------------------|
-------------------|-------------------|
-------------------|-------------------|
-------------------|-------------------|
-------------------|-------------------|
-------------------|-------------------|


  |--3--|  |--3--|  |--3--|  |--3--|   
  E  E  E  E  E  E  E  E  E  E  E  E   
-----------0--0--0--0--0--0--0--0--0--|
-----------0--0--0--0--0--0--0--0--0--|
-----------1--1--1--1--1--1--1--1--1--|
-----------2--2--2--2--2--2--2--2--2--|
--1--1--1--2--2--2--2--2--2--2--2--2--|
-----------0--0--0--0--0--0--0--0--0--|


  |--3--|  |--3--|  |--3--|  |--3--|   
  E  E  E  E  E  E  E  E  E  E  E  E   
--0--0--0--0--0--0--0--0--0--0--0--0--|
--0--0--0--0--0--0--0--0--0--0--0--0--|
--1--1--1--1--1--1--1--1--1--1--1--1--|
--2--2--2--2--2--2--2--2--2--2--2--2--|
--2--2--2--2--2--2--2--2--2--2--2--2--|
--0--0--0--0--0--0--0--0--0--0--0--0--|


  |--3--|  |--3--|  |--3--|  |--3--|   
  E  E  E  E  E  E  E  E  E  E  E  E   
-----------0--0--0--0--0--0--0--0--0--|
-----------0--0--0--0--0--0--0--0--0--|
-----------1--1--1--1--1--1--1--1--1--|
-----------2--2--2--2--2--2--2--2--2--|
--1--1--1--2--2--2--2--2--2--2--2--2--|
-----------0--0--0--0--0--0--0--0--0--|


  |--3--|  |--3--|  |--3--|  |--3--|   
  E  E  E  E  E  E  E  E  E  E  E  E   
--0--0--0--0--0--0--0--0--0--0--0--0--|
--0--0--0--0--0--0--0--0--0--0--0--0--|
--1--1--1--1--1--1--1--1--1--1--1--1--|
--2--2--2--2--2--2--2--2--2--2--2--2--|
--2--2--2--2--2--2--2--2--2--2--2--2--|
--0--0--0--0--0--0--0--0--0--0--0--0--|


                 |--3--|   
  Q    Q    Q    E  E  E   
--4-----------------------|
--4-----------------------|
--4-----------------------|
--6----2----3----7--L--7--|
--6----2----3----7--L--7--|
--4----0----1----5--L--5--|


                 |--3--|   
  Q    Q    Q    E  E  E   
--4-----------------------|
--4-----------------------|
--4-----------------------|
--6----2----3----7--L--7--|
--6----2----3----7--L--7--|
--4----0----1----5--L--5--|


                 |--3--|   
  Q    Q    Q    E  E  E   
--4-----------------------|
--4-----------------------|
--4-----------------------|
--6----2----3----7--L--7--|
--6----2----3----7--L--7--|
--4----0----1----5--L--5--|


                 |--3--|   
  Q    Q    Q    E  E  E   
--4-----------------------|
--4-----------------------|
--4-----------------------|
--6----2----3----7--L--7--|
--6----2----3----7--L--7--|
--4----0----1----5--L--5--|


  |--3--|  |--3--|  |--3--|  |--3--|   
  E  E  E  E  E  E  E  E  E  E  E  E   
-----------0--0--0--0--0--0--0--0--0--|
-----------0--0--0--0--0--0--0--0--0--|
-----------1--1--1--1--1--1--1--1--1--|
-----------2--2--2--2--2--2--2--2--2--|
--1--1--1--2--2--2--2--2--2--2--2--2--|
-----------0--0--0--0--0--0--0--0--0--|


  |--3--|  |--3--|  |--3--|  |--3--|   
  E  E  E  E  E  E  E  E  E  E  E  E   
--0--0--0--0--0--0--0--0--0--0--0--0--|
--0--0--0--0--0--0--0--0--0--0--0--0--|
--1--1--1--1--1--1--1--1--1--1--1--1--|
--2--2--2--2--2--2--2--2--2--2--2--2--|
--2--2--2--2--2--2--2--2--2--2--2--2--|
--0--0--0--0--0--0--0--0--0--0--0--0--|


  |--3--|  |--3--|  |--3--|  |--3--|   
  E  E  E  E  E  E  E  E  E  E  E  E   
-----------0--0--0--0--0--0--0--0--0--|
-----------0--0--0--0--0--0--0--0--0--|
-----------1--1--1--1--1--1--1--1--1--|
-----------2--2--2--2--2--2--2--2--2--|
--1--1--1--2--2--2--2--2--2--2--2--2--|
-----------0--0--0--0--0--0--0--0--0--|


  |--3--|  |--3--|  |--3--|  |--3--|   
  E  E  E  E  E  E  E  E  E  E  E  E   
--0--0--0--0--0--0--0--0--0--0--0--0--|
--0--0--0--0--0--0--0--0--0--0--0--0--|
--1--1--1--1--1--1--1--1--1--1--1--1--|
--2--2--2--2--2--2--2--2--2--2--2--2--|
--2--2--2--2--2--2--2--2--2--2--2--2--|
--0--0--0--0--0--0--0--0--0--0--0--0--|


                  |--3--|   
  Q    Q    Q     E  E  E   
--4------------------------|
--4------------------------|
--4------------------------|
--6----2----3S----7--L--7--|
--6----2----3S----7--L--7--|
--4----0----1S----5--L--5--|


                  |--3--|   
  Q    Q    Q     E  E  E   
--4------------------------|
--4------------------------|
--4------------------------|
--6----2----3S----7--L--7--|
--6----2----3S----7--L--7--|
--4----0----1S----5--L--5--|


                  |--3--|   
  Q    Q    Q     E  E  E   
--4------------------------|
--4------------------------|
--4------------------------|
--6----2----3S----7--L--7--|
--6----2----3S----7--L--7--|
--4----0----1S----5--L--5--|


                  |--3--|   
  Q    Q    Q     E  E  E   
--4------------------------|
--4------------------------|
--4------------------------|
--6----2----3S----7--L--7--|
--6----2----3S----7--L--7--|
--4----0----1S----5--L--5--|


  W                   W                 
-------------------|-------------------|
-------------------|-------------------|
-------------------|-------------------|
-------------------|-------------------|
-------------------|-------------------|
-------------------|-------------------|


   ^       v  PM PM PM  
              |--3--|   
   Q.      E  E  E  E   
-----------------------|
-----------------------|
--11------11-----------|
--10------10-----------|
---9-------9-----------|
--10------10--8--8--8--|


   ^       v  PM PM PM            
              |--3--|             
   Q.      E  E  E  E  Q    Q     
---------------------------------|
---------------------------------|
---------------------------------|
--10------10-----------7---------|
--10------10-----------6---------|
---8-------8--5--5--5--5---------|


   ^       v  PM PM PM  
              |--3--|   
   Q.      E  E  E  E   
-----------------------|
-----------------------|
--11------11-----------|
--10------10-----------|
---9-------9-----------|
--10------10--8--8--8--|


   ^       v  PM PM PM            
              |--3--|             
   Q.      E  E  E  E  Q    Q     
---------------------------------|
---------------------------------|
---------------------------------|
--10------10-----------7---------|
--10------10-----------6---------|
---8-------8--5--5--5--5---------|


  W             W     
  H        Q    Q     
---------------------|
---------------------|
---------------------|
---------------------|
--6--------5----6----|
---------------------|


                     PM PM PM  
            |--3--|  |--3--|   
  Q    Q    E  E  E  E  E  E   
------------------------------|
------------------------------|
------------------------------|
------------------------------|
--L----5----------------------|
------------4--3--0--0--0--0--|


  W                      W     
       |--3--|  |--3--|        
  Q    E  E  E  E  E  E  Q     
------------------------------|
------------------------------|
------------------------------|
-------------5--4--5----------|
--6----L--L-----------6--4----|
------------------------------|


           W           W             W     
  H        H           H        Q    Q     
--------------------|---------------------|
--------------------|---------------------|
--------------------|---------------------|
--------------------|---------------------|
--L--------4--------|--6--------5----6----|
--------------------|---------------------|


                     PM PM PM  
            |--3--|  |--3--|   
  Q    Q    E  E  E  E  E  E   
------------------------------|
------------------------------|
------------------------------|
------------------------------|
--L----5----------------------|
------------4--3--0--0--0--0--|


  W                      W     
       |--3--|  |--3--|        
  Q    E  E  E  E  E  E  Q     
------------------------------|
------------------------------|
------------------------------|
-------------5--4--5----------|
--6----L--L-----------6--4----|
------------------------------|


        PM PM PM PM PM PM PM PM PM PM  
  |--3--|  |--3--|  |--3--|  |--3--|   
  E  E  E  E  E  E  E  E  E  E  E  E   
--------------------------------------|
--------------------------------------|
--------------------------------------|
--------------------------------------|
--L--L--------4--5-----------5--4-----|
--------3--6--------6--3--6--------6--|


   ^       v  PM PM PM  
              |--3--|   
   Q.      E  E  E  E   
-----------------------|
-----------------------|
--11------11-----------|
--10------10-----------|
---9-------9-----------|
--10------10--8--8--8--|


   ^       v  PM PM PM            
              |--3--|             
   Q.      E  E  E  E  Q    Q     
---------------------------------|
---------------------------------|
---------------------------------|
--10------10-----------7---------|
--10------10-----------6---------|
---8-------8--5--5--5--5---------|


   ^       v  PM PM PM  
              |--3--|   
   Q.      E  E  E  E   
-----------------------|
-----------------------|
--11------11-----------|
--10------10-----------|
---9-------9-----------|
--10------10--8--8--8--|


   ^       v  PM PM PM            
              |--3--|             
   Q.      E  E  E  E  Q    Q     
---------------------------------|
---------------------------------|
---------------------------------|
--10------10-----------7---------|
--10------10-----------6---------|
---8-------8--5--5--5--5---------|


  W             W     
  H        Q    Q     
---------------------|
---------------------|
---------------------|
---------------------|
--6--------5----6----|
---------------------|


                     PM PM PM  
            |--3--|  |--3--|   
  Q    Q    E  E  E  E  E  E   
------------------------------|
------------------------------|
------------------------------|
------------------------------|
--L----5----------------------|
------------4--3--0--0--0--0--|


  W                      W     
       |--3--|  |--3--|        
  Q    E  E  E  E  E  E  Q     
------------------------------|
------------------------------|
------------------------------|
-------------5--4--5----------|
--6----L--L-----------6--4----|
------------------------------|


           W           W             W     
  H        H           H        Q    Q     
--------------------|---------------------|
--------------------|---------------------|
--------------------|---------------------|
--------------------|---------------------|
--L--------4--------|--6--------5----6----|
--------------------|---------------------|


                     PM PM PM  
            |--3--|  |--3--|   
  Q    Q    E  E  E  E  E  E   
------------------------------|
------------------------------|
------------------------------|
------------------------------|
--L----5----------------------|
------------4--3--0--0--0--0--|


  W                      W     
       |--3--|  |--3--|        
  Q    E  E  E  E  E  E  Q     
------------------------------|
------------------------------|
------------------------------|
-------------5--4--5----------|
--6----L--L-----------6--4----|
------------------------------|


        PM PM PM PM PM PM PM PM PM PM  
  |--3--|  |--3--|  |--3--|  |--3--|   
  E  E  E  E  E  E  E  E  E  E  E  E   
--------------------------------------|
--------------------------------------|
--------------------------------------|
--------------------------------------|
--L--L--------4--5-----------5--4-----|
--------3--6--------6--3--6--------6--|


  ^      v       ^      v       ^    v       
                                |--3-|       
  Q.     E  Q    Q.     E  Q    Q    E  Q    
--0------0-------0------0--------------------
--5------5-------5------5--------------------
--4------4-------4------4-------4----4-------
--2------2-------2------2-------2----2-------
--3------3-------3------3-------3----3-------
---------------------------------------------


  ^      v       ^      v             PM    P
                                |--3--|  |--3
  Q.     E  Q    Q.     E  Q    E  E  E  E  E
---------------------------------------------
---------------------------------------------
--4------4-------4------4-------4--L---------
--4------4-------4------4-------4--L---------
--2------2-------2------2-------2--L--2-----2
---------------------------------------------


  ^      v                 PM PM PM PM ^     
                        |--3--|  |--3--|  |--
  Q.     E  Q    Q.     E  E  E  E  E  E  E  
-----------------0------L--------------------
--6------6-------5------L--------------------
--5------5-------4------L--------------4--L--
--3------3-------2------L--------------2--L--
--0------0-------3------L--------------3--L--
---------------------------0--5--0--0--------


  ^      v                     ^    v        
                               |--3-|        
  Q.     E  Q    H        Q    Q    E  Q     
-----------------0--------------------------|
--6------6-------5--------------------------|
--5------5-------4-------------4----4-------|
--3------3-------2-------------2----2-------|
--0------0-------3-------------3----3-------|
--------------------------------------------|


  ^      v       ^      v       ^    v       
                                |--3-|       
  Q.     E  Q    Q.     E  Q    Q    E  Q    
--0------0-------0------0-------0----0-------
--5------5-------5------5-------5----5-------
--4------4-------4------4-------4----4-------
--2------2-------2------2-------2----2-------
--3------3-------3------3-------3----3-------
---------------------------------------------


  ^      v       ^      v             PM    P
                                |--3--|  |--3
  Q.     E  Q    Q.     E  Q    E  E  E  E  E
---------------------------------------------
---------------------------------------------
--4------4-------4------4-------4--L---------
--4------4-------4------4-------4--L---------
--2------2-------2------2-------2--L--2-----2
---------------------------------------------


  ^      v                                   
                               |--3-|        
  Q.     E  Q    H        Q    Q    E  Q     
-----------------0--------------------------|
--6------6-------5--------------------------|
--5------5-------4--------------------------|
--3------3-------2--------------------------|
--0------0-------3-------------2----2-------|
-------------------------------0----0-------|


  ^      v                PM PM PM      PM PM
                          |--3--|       |--3-
  Q.     E  Q    H        E  E  E  Q    E  E 
---------------------------------------------
--6------6-------5---------------------------
--5------5-------4---------------------------
--3------3-------2-----------------2---------
--0------0-------3-----------------2---------
--------------------------0--0--0--0----0--0-


  W                W                 
--0----------------L----------------|
--0----------------L----------------|
--2----------------L----------------|
--2----------------L----------------|
--0----------------L----------------|
------------------------------------|


  W                W                 
--L----------------L----------------|
--L----------------L----------------|
--L----------------L----------------|
--L----------------L----------------|
--L----------------L----------------|
------------------------------------|


  W                W                 
--L----------------L----------------|
--L----------------L----------------|
--L----------------L----------------|
--L----------------L----------------|
--L----------------L----------------|
------------------------------------|


  W                W                 
------------------------------------|
------------------------------------|
------------------------------------|
------------------------------------|
------------------------------------|
------------------------------------|


  W                W                 
------------------------------------|
------------------------------------|
------------------------------------|
------------------------------------|
------------------------------------|
------------------------------------|


  W                W                 
------------------------------------|
------------------------------------|
------------------------------------|
------------------------------------|
------------------------------------|
------------------------------------|


  W                W                 
------------------------------------|
------------------------------------|
------------------------------------|
------------------------------------|
------------------------------------|
------------------------------------|


  W                W                 
------------------------------------|
------------------------------------|
------------------------------------|
------------------------------------|
------------------------------------|
------------------------------------|


  W                W                 
------------------------------------|
------------------------------------|
------------------------------------|
------------------------------------|
------------------------------------|
------------------------------------|


  W                W                 
------------------------------------|
------------------------------------|
------------------------------------|
------------------------------------|
------------------------------------|
------------------------------------|


  W                W                 
------------------------------------|
------------------------------------|
------------------------------------|
------------------------------------|
------------------------------------|
------------------------------------|


  W                W                 
------------------------------------|
------------------------------------|
------------------------------------|
------------------------------------|
------------------------------------|
------------------------------------|


  W                W                 
------------------------------------|
------------------------------------|
------------------------------------|
------------------------------------|
------------------------------------|
------------------------------------|


  W                W                 
------------------------------------|
------------------------------------|
------------------------------------|
------------------------------------|
------------------------------------|
------------------------------------|


  W                W                 
------------------------------------|
------------------------------------|
------------------------------------|
------------------------------------|
------------------------------------|
------------------------------------|


  W                W                 
------------------------------------|
------------------------------------|
------------------------------------|
------------------------------------|
------------------------------------|
------------------------------------|


  W                W                 
------------------------------------|
------------------------------------|
------------------------------------|
------------------------------------|
------------------------------------|
------------------------------------|


  W                W                 
------------------------------------|
------------------------------------|
------------------------------------|
------------------------------------|
------------------------------------|
------------------------------------|


  W                W                 
------------------------------------|
------------------------------------|
------------------------------------|
------------------------------------|
------------------------------------|
------------------------------------|


  W                W                 
------------------------------------|
------------------------------------|
------------------------------------|
------------------------------------|
------------------------------------|
------------------------------------|


  W                W                 
------------------------------------|
------------------------------------|
------------------------------------|
------------------------------------|
------------------------------------|
------------------------------------|


  W                W                 
------------------------------------|
------------------------------------|
------------------------------------|
------------------------------------|
------------------------------------|
------------------------------------|


  W                H        Q    E   
------------------------------------|
------------------------------------|
------------------------------------|
------------------------------------|
------------------------------------|
------------------------------------|


  time signature (bars 151-168) corrected by 
  W                                          
---------------------------------------------
---------------------------------------------
---------------------------------------------
---------------------------------------------
---------------------------------------------
---------------------------------------------


  W                   W                 
-------------------|-------------------|
-------------------|-------------------|
-------------------|-------------------|
-------------------|-------------------|
-------------------|-------------------|
-------------------|-------------------|


  W                   W                 
-------------------|-------------------|
-------------------|-------------------|
-------------------|-------------------|
-------------------|-------------------|
-------------------|-------------------|
-------------------|-------------------|


  W                   W                 
-------------------|-------------------|
-------------------|-------------------|
-------------------|-------------------|
-------------------|-------------------|
-------------------|-------------------|
-------------------|-------------------|


  W                   W                 
-------------------|-------------------|
-------------------|-------------------|
-------------------|-------------------|
-------------------|-------------------|
-------------------|-------------------|
-------------------|-------------------|


                   with wah  
  H.           E.  S         
----------------------------|
----------------------------|
----------------------------|
----------------------------|
----------------------------|
----------------------------|


   S  S  S S  S  S S  S  S S  S  S S  S  S  S
--12-12--x-x-12--x-x-12--x-x-12--x-x-12--x--x
--12-12--x-x-12--x-x-12--x-x-12--x-x-12--x--x
--16-16--x-x-16--x-x-16--x-x-16--x-x-16--x--x
--14-14--x-x-14--x-x-14--x-x-14--x-x-14--x--x
---------x-x-----x-x-----x-x-----x-x-----x--x
---------x-x-----x-x-----x-x-----x-x-----x--x


   S  S  S S  S  S S  S  S S  S  S S  S  S  S
--10-10--x-x-10--x-x-10--x-x-10--x-x-10--x--x
--11-11--x-x-11--x-x-11--x-x-11--x-x-11--x--x
--12-12--x-x-12--x-x-12--x-x-12--x-x-12--x--x
--14-14--x-x-14--x-x-14--x-x-14--x-x-14--x--x
---------x-x-----x-x-----x-x-----x-x-----x--x
---------x-x-----x-x-----x-x-----x-x-----x--x


   S  S  S S  S  S S  S  S S  S  S S  S  S  S
--12-12--x-x-12--x-x-12--x-x-12--x-x-12--x--x
--12-12--x-x-12--x-x-12--x-x-12--x-x-12--x--x
--16-16--x-x-16--x-x-16--x-x-16--x-x-16--x--x
--14-14--x-x-14--x-x-14--x-x-14--x-x-14--x--x
---------x-x-----x-x-----x-x-----x-x-----x--x
---------x-x-----x-x-----x-x-----x-x-----x--x


   S  S  S S  S  S S  S  S S  S  S S  S  S  S
--10-10--x-x-10--x-x-10--x-x-10--x-x-10--x--x
--11-11--x-x-11--x-x-11--x-x-11--x-x-11--x--x
--12-12--x-x-12--x-x-12--x-x-12--x-x-12--x--x
--14-14--x-x-14--x-x-14--x-x-14--x-x-14--x--x
---------x-x-----x-x-----x-x-----x-x-----x--x
---------x-x-----x-x-----x-x-----x-x-----x--x


   S  S  S S  S  S S  S  S S  S  S S  S  S  S
--12-12--x-x-12--x-x-12--x-x-12--x-x-12--x--x
--12-12--x-x-12--x-x-12--x-x-12--x-x-12--x--x
--16-16--x-x-16--x-x-16--x-x-16--x-x-16--x--x
--14-14--x-x-14--x-x-14--x-x-14--x-x-14--x--x
---------x-x-----x-x-----x-x-----x-x-----x--x
---------x-x-----x-x-----x-x-----x-x-----x--x


   S  S  S S  S  S S  S  S S  S  S S  S  S  S
--10-10--x-x-10--x-x-10--x-x-10--x-x-10--x--x
--11-11--x-x-11--x-x-11--x-x-11--x-x-11--x--x
--12-12--x-x-12--x-x-12--x-x-12--x-x-12--x--x
--14-14--x-x-14--x-x-14--x-x-14--x-x-14--x--x
---------x-x-----x-x-----x-x-----x-x-----x--x
---------x-x-----x-x-----x-x-----x-x-----x--x


   S  S  S S  S  S S  S  S S  S  S S  S  S  S
--12-12--x-x-12--x-x-12--x-x-12--x-x-12--x--x
--12-12--x-x-12--x-x-12--x-x-12--x-x-12--x--x
--16-16--x-x-16--x-x-16--x-x-16--x-x-16--x--x
--14-14--x-x-14--x-x-14--x-x-14--x-x-14--x--x
---------x-x-----x-x-----x-x-----x-x-----x--x
---------x-x-----x-x-----x-x-----x-x-----x--x


   S  S  S S  S  S S  S S E.  Q     
--10-10--x-x-10--x-x-10------------|
--11-11--x-x-11--x-x-11------------|
--12-12--x-x-12--x-x-12------------|
--14-14--x-x-14--x-x-14------------|
---------x-x-----x-x---------------|
---------x-x-----x-x---------------|


  Q    E  E  Q.     Q    Q    Q.     Q     
--0----0--0--L-----------0----L------L----|
--0----0--0--L------0----L----L------L----|
--6----6--3--L------3----L----3------L----|
--5----5--2--L------2----L----L------L----|
--4----4--1--L------1----L----L------L----|
--0----0--0--L------0----L----L------L----|


  |----3----|               
  Q    Q    Q    Q    Q     
---------------------------|
---------------------------|
--8----7---------7----8----|
------------6--------------|
--6----5---------5----6----|
------------4--------------|


       PM PM          PM PM        PM PM     
  Q    S  S   Q.      S  S   Q     S  S   H. 
-------------(1)------------(3)----------(0)-
-------------(1)------------(3)----------(0)-
--------------2--------------4------------1--
--7-----------3--------------5------------2--
--7-----------3--------------5------------2--
--5----0--0---1-------0--0---3-----0--0---0--


  Q    E  Q    H        Q    Q.     Q     
--0----0--0----L--------0----L------L----|
--0----0--0----L--------L----L------L----|
--6----6--3----L--------L----3------L----|
--5----5--2----L--------L----L------L----|
--4----4--1----L--------L----L------L----|
--0----0--0----L--------L----L------L----|


  |----3----|               
  Q    Q    Q    Q    Q     
---------------------------|
---------------------------|
--8----7---------7----8----|
------------6--------------|
--6----5---------5----6----|
------------4--------------|


  E.  S S S E.  E.  E.  S S S E.  E.  Q    Q 
---------------------------------------------
---------------------------------------------
--9---9-9-9-9---8---9---9-9-9-9---8---9----8-
---------------------------------------------
--7---7-7-7-7---6---7---7-7-7-7---6---7----6-
---------------------------------------------


  S S S S S S S S S S S S S S S   S S S S S S
---------------------------------------------
---------------------------------------------
---------------------------------------------
---------------------------------------------
--------------------------------4g5-5-5-6-6-6
--4-4-4-3-3-3-4-4-4-0-0-0-4-4-4--------------


  Q    E  Q    H        Q    Q.     Q     
--0----0--0----L--------0----L------L----|
--0----0--0----L--------L----L------L----|
--6----6--3----L--------L----3------L----|
--5----5--2----L--------L----L------L----|
--4----4--1----L--------L----L------L----|
--0----0--0----L--------L----L------L----|


  |----3----|               
  Q    Q    Q    Q    Q     
---------------------------|
---------------------------|
--8----7---------7----8----|
------------6--------------|
--6----5---------5----6----|
------------4--------------|


       PM PM          PM PM        PM PM     
  Q    S  S   Q.      S  S   Q     S  S   H. 
-------------(1)------------(3)----------(0)-
-------------(1)------------(3)----------(0)-
--------------2--------------4------------1--
--7-----------3--------------5------------2--
--7-----------3--------------5------------2--
--5----0--0---1-------0--0---3-----0--0---0--


  Q    E  Q    H        Q    Q.     Q     
--0----0--0----L--------0----L------L----|
--0----0--0----L--------L----L------L----|
--6----6--3----L--------L----3------L----|
--5----5--2----L--------L----L------L----|
--4----4--1----L--------L----L------L----|
--0----0--0----L--------L----L------L----|


  |----3----|               
  Q    Q    Q    Q    Q     
---------------------------|
---------------------------|
--8----7---------7----8----|
------------6--------------|
--6----5---------5----6----|
------------4--------------|


  E.  S S S E.  E.  E.  S S S E.  E.  Q    Q 
---------------------------------------------
---------------------------------------------
--9---9-9-9-9---8---9---9-9-9-9---8---9----8-
---------------------------------------------
--7---7-7-7-7---6---7---7-7-7-7---6---7----6-
---------------------------------------------


  E.  S S S E.  E.  E.  S S S E.  E.  Q    Q 
---------------------------------------------
---------------------------------------------
--9---9-9-9-9---8---9---9-9-9-9---8---9----8-
---------------------------------------------
--7---7-7-7-7---6---7---7-7-7-7---6---7----6-
---------------------------------------------


  S S S S S S S S S S S S S S S   S S S S S S
---------------------------------------------
---------------------------------------------
---------------------------------------------
---------------------------------------------
--------------------------------4g5-5-5-6-6-6
--4-4-4-3-3-3-4-4-4-0-0-0-4-4-4--------------


  S S S S S S S S S S S S S S S   S S S S S S
---------------------------------------------
---------------------------------------------
---------------------------------------------
---------------------------------------------
--------------------------------4g5-5-5-6-6-6
--4-4-4-3-3-3-4-4-4-0-0-0-4-4-4--------------


  >           >           >           >      
  S S S S S S S S S S S S S S S S S S S S S S
---------------------------------------------
---------------------------------------------
--5-5-5-5-5-5-4-4-4-4-4-4-4-4-4-4-4-4-4-4-4-4
---------------------------------------------
--3-3-3-3-3-3-2-2-2-2-2-2-2-2-2-2-2-2-2-2-2-2
---------------------------------------------


  >           >           >           >      
  S S S S S S S S S S S S S S S S S S S S S S
---------------------------------------------
---------------------------------------------
--5-5-5-5-5-5-4-4-4-4-4-4-4-4-4-4-4-4-4-4-4-4
---------------------------------------------
--3-3-3-3-3-3-2-2-2-2-2-2-2-2-2-2-2-2-2-2-2-2
---------------------------------------------


  >           >           >           >      
  S S S S S S S S S S S S S S S S S S S S S S
---------------------------------------------
---------------------------------------------
--5-5-5-5-5-5-4-4-4-4-4-4-4-4-4-4-4-4-4-4-4-4
---------------------------------------------
--3-3-3-3-3-3-2-2-2-2-2-2-2-2-2-2-2-2-2-2-2-2
---------------------------------------------


  >           >           >           >      
  S S S S S S S S S S S S S S S S S S S S S S
---------------------------------------------
---------------------------------------------
--5-5-5-5-5-5-4-4-4-4-4-4-4-4-4-4-4-4-4-4-4-4
---------------------------------------------
--3-3-3-3-3-3-2-2-2-2-2-2-2-2-2-2-2-2-2-2-2-2
---------------------------------------------


  >           >           >           >      
  S S S S S S S S S S S S S S S S S S S S S S
---------------------------------------------
---------------------------------------------
--5-5-5-5-5-5-4-4-4-4-4-4-4-4-4-4-4-4-4-4-4-4
---------------------------------------------
--3-3-3-3-3-3-2-2-2-2-2-2-2-2-2-2-2-2-2-2-2-2
---------------------------------------------


  >           >           >           >      
  S S S S S S S S S S S S S S S S S S S S S S
---------------------------------------------
---------------------------------------------
--5-5-5-5-5-5-4-4-4-4-4-4-4-4-4-4-4-4-4-4-4-4
---------------------------------------------
--3-3-3-3-3-3-2-2-2-2-2-2-2-2-2-2-2-2-2-2-2-2
---------------------------------------------


  >           >           >           >      
  S S S S S S S S S S S S S S S S S S S S S S
---------------------------------------------
---------------------------------------------
--5-5-5-5-5-5-4-4-4-4-4-4-4-4-4-4-4-4-4-4-4-4
---------------------------------------------
--3-3-3-3-3-3-2-2-2-2-2-2-2-2-2-2-2-2-2-2-2-2
---------------------------------------------


  >           >           >           >      
  S S S S S S S S S S S S S S S S S S S S S S
---------------------------------------------
---------------------------------------------
--5-5-5-5-5-5-4-4-4-4-4-4-4-4-4-4-4-4-4-4-4-4
---------------------------------------------
--3-3-3-3-3-3-2-2-2-2-2-2-2-2-2-2-2-2-2-2-2-2
---------------------------------------------




--------------------------------------------------
--------------------------------------------------


                         


                                        Opeth
Lead guitar



     H           W                H         
E||-----------|----------------------------|
B||-----------|----------------------------|
G||-----------|----------------------------|
D||-----------|----------------------------|
A||-----------|----------------------------|
E||-----------|----------------------------|


              ^                
  H        E  H        Q.      
--------------5---------------|
------------------------------|
--------------2---------------|
------------------------------|
--------------0---------------|
------------------------------|


                   ^         
  W                H         
----------------------------|
----------------------------|
-------------------2--------|
----------------------------|
-------------------0--------|
----------------------------|


  W                   H         
-------------------|-----------|
-------------------|-----------|
-------------------|-----------|
-------------------|-----------|
-------------------|-----------|
-------------------|-----------|


  W                   W                 
-------------------|-------------------|
-------------------|-------------------|
-------------------|-------------------|
-------------------|-------------------|
-------------------|-------------------|
-------------------|-------------------|


  W                   W                 
-------------------|-------------------|
-------------------|-------------------|
-------------------|-------------------|
-------------------|-------------------|
-------------------|-------------------|
-------------------|-------------------|


  W                   W                 
-------------------|-------------------|
-------------------|-------------------|
-------------------|-------------------|
-------------------|-------------------|
-------------------|-------------------|
-------------------|-------------------|


  W                   W                 
-------------------|-------------------|
-------------------|-------------------|
-------------------|-------------------|
-------------------|-------------------|
-------------------|-------------------|
-------------------|-------------------|


  W                   W                 
-------------------|-------------------|
-------------------|-------------------|
-------------------|-------------------|
-------------------|-------------------|
-------------------|-------------------|
-------------------|-------------------|


  W                   W                 
-------------------|-------------------|
-------------------|-------------------|
-------------------|-------------------|
-------------------|-------------------|
-------------------|-------------------|
-------------------|-------------------|


  W                   W                 
-------------------|-------------------|
-------------------|-------------------|
-------------------|-------------------|
-------------------|-------------------|
-------------------|-------------------|
-------------------|-------------------|


  W                   W                 
-------------------|-------------------|
-------------------|-------------------|
-------------------|-------------------|
-------------------|-------------------|
-------------------|-------------------|
-------------------|-------------------|


  W                   W                 
-------------------|-------------------|
-------------------|-------------------|
-------------------|-------------------|
-------------------|-------------------|
-------------------|-------------------|
-------------------|-------------------|


  W                   W                 
-------------------|-------------------|
-------------------|-------------------|
-------------------|-------------------|
-------------------|-------------------|
-------------------|-------------------|
-------------------|-------------------|


  W                   W                 
-------------------|-------------------|
-------------------|-------------------|
-------------------|-------------------|
-------------------|-------------------|
-------------------|-------------------|
-------------------|-------------------|


  W                   W                 
-------------------|-------------------|
-------------------|-------------------|
-------------------|-------------------|
-------------------|-------------------|
-------------------|-------------------|
-------------------|-------------------|


  W                   W                 
-------------------|-------------------|
-------------------|-------------------|
-------------------|-------------------|
-------------------|-------------------|
-------------------|-------------------|
-------------------|-------------------|


  W                   W                 
-------------------|-------------------|
-------------------|-------------------|
-------------------|-------------------|
-------------------|-------------------|
-------------------|-------------------|
-------------------|-------------------|


  W                   W                 
-------------------|-------------------|
-------------------|-------------------|
-------------------|-------------------|
-------------------|-------------------|
-------------------|-------------------|
-------------------|-------------------|


  W                   W                 
-------------------|-------------------|
-------------------|-------------------|
-------------------|-------------------|
-------------------|-------------------|
-------------------|-------------------|
-------------------|-------------------|


  W                   W                 
-------------------|-------------------|
-------------------|-------------------|
-------------------|-------------------|
-------------------|-------------------|
-------------------|-------------------|
-------------------|-------------------|


  W                   W                 
-------------------|-------------------|
-------------------|-------------------|
-------------------|-------------------|
-------------------|-------------------|
-------------------|-------------------|
-------------------|-------------------|


  W                   W                 
-------------------|-------------------|
-------------------|-------------------|
-------------------|-------------------|
-------------------|-------------------|
-------------------|-------------------|
-------------------|-------------------|


  W                   W                 
-------------------|-------------------|
-------------------|-------------------|
-------------------|-------------------|
-------------------|-------------------|
-------------------|-------------------|
-------------------|-------------------|


  W                   W                 
-------------------|-------------------|
-------------------|-------------------|
-------------------|-------------------|
-------------------|-------------------|
-------------------|-------------------|
-------------------|-------------------|


  W                   W                 
-------------------|-------------------|
-------------------|-------------------|
-------------------|-------------------|
-------------------|-------------------|
-------------------|-------------------|
-------------------|-------------------|


  W                   W                 
-------------------|-------------------|
-------------------|-------------------|
-------------------|-------------------|
-------------------|-------------------|
-------------------|-------------------|
-------------------|-------------------|


  W                   W                 
-------------------|-------------------|
-------------------|-------------------|
-------------------|-------------------|
-------------------|-------------------|
-------------------|-------------------|
-------------------|-------------------|


            <                               
  H         H            W                  
---------------------|---------------------|
-----------14--------|--13~----------------|
---------------------|---------------------|
---------------------|---------------------|
---------------------|---------------------|
---------------------|---------------------|


   |---3---|   |---3---|   |---3---|  |---3--
   E   E   E   E   E   E   E   E   E  E   E  
------12----------12-------------------------
--13------13--14------13--14--11--13--9--11~-
---------------------------------------------
---------------------------------------------
---------------------------------------------
---------------------------------------------


   W                    W                 
---------------------|-------------------|
--13~----------------|-------------------|
---------------------|-------------------|
---------------------|-------------------|
---------------------|-------------------|
---------------------|-------------------|


  W                   W                 
-------------------|-------------------|
-------------------|-------------------|
-------------------|-------------------|
-------------------|-------------------|
-------------------|-------------------|
-------------------|-------------------|


  W                   W                 
-------------------|-------------------|
-------------------|-------------------|
-------------------|-------------------|
-------------------|-------------------|
-------------------|-------------------|
-------------------|-------------------|


  W                   W                 
-------------------|-------------------|
-------------------|-------------------|
-------------------|-------------------|
-------------------|-------------------|
-------------------|-------------------|
-------------------|-------------------|


  W                   W                 
-------------------|-------------------|
-------------------|-------------------|
-------------------|-------------------|
-------------------|-------------------|
-------------------|-------------------|
-------------------|-------------------|


  W                   W                 
-------------------|-------------------|
-------------------|-------------------|
-------------------|-------------------|
-------------------|-------------------|
-------------------|-------------------|
-------------------|-------------------|


  W                   W                 
-------------------|-------------------|
-------------------|-------------------|
-------------------|-------------------|
-------------------|-------------------|
-------------------|-------------------|
-------------------|-------------------|


  W                   W                 
-------------------|-------------------|
-------------------|-------------------|
-------------------|-------------------|
-------------------|-------------------|
-------------------|-------------------|
-------------------|-------------------|


  W                   W                 
-------------------|-------------------|
-------------------|-------------------|
-------------------|-------------------|
-------------------|-------------------|
-------------------|-------------------|
-------------------|-------------------|


  W                   W                 
-------------------|-------------------|
-------------------|-------------------|
-------------------|-------------------|
-------------------|-------------------|
-------------------|-------------------|
-------------------|-------------------|


  W                   W                 
-------------------|-------------------|
-------------------|-------------------|
-------------------|-------------------|
-------------------|-------------------|
-------------------|-------------------|
-------------------|-------------------|


  W                   W                 
-------------------|-------------------|
-------------------|-------------------|
-------------------|-------------------|
-------------------|-------------------|
-------------------|-------------------|
-------------------|-------------------|


  W                   W                 
-------------------|-------------------|
-------------------|-------------------|
-------------------|-------------------|
-------------------|-------------------|
-------------------|-------------------|
-------------------|-------------------|


  W                   W                 
-------------------|-------------------|
-------------------|-------------------|
-------------------|-------------------|
-------------------|-------------------|
-------------------|-------------------|
-------------------|-------------------|


  W                   W                 
-------------------|-------------------|
-------------------|-------------------|
-------------------|-------------------|
-------------------|-------------------|
-------------------|-------------------|
-------------------|-------------------|


  W                   W                 
-------------------|-------------------|
-------------------|-------------------|
-------------------|-------------------|
-------------------|-------------------|
-------------------|-------------------|
-------------------|-------------------|


  W                   W                 
-------------------|-------------------|
-------------------|-------------------|
-------------------|-------------------|
-------------------|-------------------|
-------------------|-------------------|
-------------------|-------------------|


  W                   W                 
-------------------|-------------------|
-------------------|-------------------|
-------------------|-------------------|
-------------------|-------------------|
-------------------|-------------------|
-------------------|-------------------|


  W                   W                 
-------------------|-------------------|
-------------------|-------------------|
-------------------|-------------------|
-------------------|-------------------|
-------------------|-------------------|
-------------------|-------------------|


  H        Q       W                Q     
----------------|------------------------|
----------------|------------------------|
----------------|------------------------|
----------------|------------------------|
----------------|------------------------|
----------------|------------------------|


  H        Q       W                Q     
----------------|------------------------|
----------------|------------------------|
----------------|------------------------|
----------------|------------------------|
----------------|------------------------|
----------------|------------------------|


  W                   W                 
-------------------|-------------------|
-------------------|-------------------|
-------------------|-------------------|
-------------------|-------------------|
-------------------|-------------------|
-------------------|-------------------|


  W                 
-------------------|
-------------------|
-------------------|
-------------------|
-------------------|
-------------------|


  |--3--|  |--3--|  |--3--|  |--3--|   
  E  E  E  E  E  E  E  E  E  E  E  E   
--9--------8--------8--------8--------|
-----8--------7--------7--------7-----|
--------6--------5--------5--------5--|
--------------------------------------|
--------------------------------------|
--------------------------------------|


   |---3--|   |---3--|   |---3--|   |--3--|  
   E   E  E   E   E  E   E   E  E   E  E  E  
--11---------11---------11---------10--------
------10---------10---------10---------9-----
----------8----------8----------8---------7--
---------------------------------------------
---------------------------------------------
---------------------------------------------


  |--3--|  |--3--|  |--3--|  |--3--|   
  E  E  E  E  E  E  E  E  E  E  E  E   
--9--------8--------8--------8--------|
-----8--------7--------7--------7-----|
--------6--------5--------5--------5--|
--------------------------------------|
--------------------------------------|
--------------------------------------|


  W                   W                 
-------------------|-------------------|
-------------------|-------------------|
-------------------|-------------------|
-------------------|-------------------|
-------------------|-------------------|
-------------------|-------------------|


  H        Q       W                Q     
----------------|------------------------|
----------------|------------------------|
----------------|------------------------|
----------------|------------------------|
----------------|------------------------|
----------------|------------------------|


  H        Q       W                Q     
----------------|------------------------|
----------------|------------------------|
----------------|------------------------|
----------------|------------------------|
----------------|------------------------|
----------------|------------------------|


  W                   W                 
-------------------|-------------------|
-------------------|-------------------|
-------------------|-------------------|
-------------------|-------------------|
-------------------|-------------------|
-------------------|-------------------|


  W                   W                 
-------------------|-------------------|
-------------------|-------------------|
-------------------|-------------------|
-------------------|-------------------|
-------------------|-------------------|
-------------------|-------------------|


  W                   W                 
-------------------|-------------------|
-------------------|-------------------|
-------------------|-------------------|
-------------------|-------------------|
-------------------|-------------------|
-------------------|-------------------|


  W                   W                 
-------------------|-------------------|
-------------------|-------------------|
-------------------|-------------------|
-------------------|-------------------|
-------------------|-------------------|
-------------------|-------------------|


  W                W                 
------------------------------------|
------------------------------------|
------------------------------------|
------------------------------------|
------------------------------------|
------------------------------------|


  W                W                 
------------------------------------|
------------------------------------|
------------------------------------|
------------------------------------|
------------------------------------|
------------------------------------|


  W                W                 
------------------------------------|
------------------------------------|
------------------------------------|
------------------------------------|
------------------------------------|
------------------------------------|


  W                W                 
------------------------------------|
------------------------------------|
------------------------------------|
------------------------------------|
------------------------------------|
------------------------------------|


  W                W                 
------------------------------------|
------------------------------------|
------------------------------------|
------------------------------------|
------------------------------------|
------------------------------------|


  W                W                 
------------------------------------|
------------------------------------|
------------------------------------|
------------------------------------|
------------------------------------|
------------------------------------|


  W                W                 
------------------------------------|
------------------------------------|
------------------------------------|
------------------------------------|
------------------------------------|
------------------------------------|


  W                W                 
------------------------------------|
------------------------------------|
------------------------------------|
------------------------------------|
------------------------------------|
------------------------------------|


  W                W                 
------------------------------------|
------------------------------------|
------------------------------------|
------------------------------------|
------------------------------------|
------------------------------------|


  W                W                 
------------------------------------|
------------------------------------|
------------------------------------|
------------------------------------|
------------------------------------|
------------------------------------|


    Q.     W                E  H         
----------------------------------------|
----------------------------------------|
--4g5------4----------------L--L--------|
----------------------------------------|
----------------------------------------|
----------------------------------------|


    Q.     W                E  H         
----------------------------------------|
----------------------------------------|
--2g4------2----------------L--L--------|
----------------------------------------|
----------------------------------------|
----------------------------------------|


    Q.      Q    E    Q.      E   E   S  S E 
------------------------------5--(0)-------0-
--------------------------------------3s-5---
---------------------------------------------
--5g6b---------------(2)---------------------
------------7-------0g2----------------------
---------------------------------------------


             NH      NH     NH    NH    NH   
  Q.         E       E      E     E     E    
-------------------------------------------<>
-------------------------------------<>12----
-------------------------------<>12----------
--2----------------------<>12----------------
--2--------------<>(12)----------------------
---------<>(12)------------------------------


    Q.     W                E  H         
----------------------------------------|
----------------------------------------|
--4g5------4----------------L--L--------|
----------------------------------------|
----------------------------------------|
----------------------------------------|


    Q.     W                E  H         
----------------------------------------|
----------------------------------------|
--2g4------2----------------L--L--------|
----------------------------------------|
----------------------------------------|
----------------------------------------|


    Q.      Q    E    Q.      E   E   S  S E 
------------------------------5--(0)-------0-
------------5-------------------------3s-5---
---------------------------------------------
--5g6b------2--------(2)---------------------
--------------------0g2----------------------
---------------------------------------------


  W                W                 
------------------------------------|
------------------------------------|
------------------------------------|
--2----------------L----------------|
--2----------------L----------------|
------------------------------------|


    Q.     W                E  H         
--7g8------7----------------L--L--------|
----------------------------------------|
--4g5------4----------------L--L--------|
----------------------------------------|
----------------------------------------|
----------------------------------------|


    Q.     W                E  H         
--5g7------5----------------L--L--------|
----------------------------------------|
--2g4------2----------------L--L--------|
----------------------------------------|
----------------------------------------|
----------------------------------------|


  E  E  E  Q    E  E  Q     E   E   E    Q.  
--0------------------------(x)---------------
--8------------------------(x)--3s--5--5g6---
--5--4----------------------2----------------
--7-----7-------0----------(x)---------------
--0--------2-------2--1----(x)---------------
---------------------------------------------


                            >                
  Q.     E  E  E  E  E   E  E   E  E  E   E  
---------------0-----x------3s--2------------
--5---------3--------3S--5---------0--5s--7--
---------1--------1--x-----------------------
--2------------------------------------------
---------------------------------------------
---------------------------------------------


     NH                                      
     Q    H        S  S Q.     H.            
--<>12--------------------------------------|
--------------------------------------------|
------------------------1------L------------|
-------------------7s-2---------------------|
--------------------------------------------|
--------------------------------------------|


  W                W                 
------------------------------------|
------------------------------------|
------------------------------------|
------------------------------------|
------------------------------------|
------------------------------------|


  W                W                 
------------------------------------|
------------------------------------|
------------------------------------|
------------------------------------|
------------------------------------|
------------------------------------|


  W                W                 
------------------------------------|
------------------------------------|
------------------------------------|
------------------------------------|
------------------------------------|
------------------------------------|


  W                W                 
------------------------------------|
------------------------------------|
------------------------------------|
------------------------------------|
------------------------------------|
------------------------------------|


    W                 H.           E  E   
-----------------------------------------|
--------------------------------------9--|
--4g7~----------------L------------7-----|
-----------------------------------------|
-----------------------------------------|
-----------------------------------------|


        |----3----|  |---3--|                
  E  E  S  S  E   E  E  E   E   H         H. 
--5--7--8p-7p-5s--4--------------------------
---------------------5-----------------------
------------------------4s--3s--2~--------1~-
---------------------------------------------
---------------------------------------------
---------------------------------------------


                                    SH       
    |--3--|                                  
    S  S  S  E  E  E  E  E  E  E    H.       
---------------------------------------------
---------------------------------------------
---------------------------------------------
-------------------------5-----5--<>5b-------
--7g8p-7p-5p-0--5--7--8-----8----------------
---------------------------------------------


             \1/                        
   S S  Q    H        W                 
---------------------------------------|
---------------------------------------|
--10-7~-L----L--------L----------------|
---------------------------------------|
---------------------------------------|
---------------------------------------|


  time signature (bars 151-168) corrected by 
  W                                          
---------------------------------------------
---------------------------------------------
--L------------------------------------------
---------------------------------------------
---------------------------------------------
---------------------------------------------


  W                   W                 
-------------------|-------------------|
-------------------|-------------------|
--L----------------|-------------------|
-------------------|-------------------|
-------------------|-------------------|
-------------------|-------------------|


  W                   W                 
-------------------|-------------------|
-------------------|-------------------|
-------------------|-------------------|
-------------------|-------------------|
-------------------|-------------------|
-------------------|-------------------|


  W                   W                 
-------------------|-------------------|
-------------------|-------------------|
-------------------|-------------------|
-------------------|-------------------|
-------------------|-------------------|
-------------------|-------------------|


  W                   W                 
-------------------|-------------------|
-------------------|-------------------|
-------------------|-------------------|
-------------------|-------------------|
-------------------|-------------------|
-------------------|-------------------|


                   this is a keyboard, NOT a 
  H.           E.  S                         
---------------------------------------------
---------------------------------------------
-------------------9-------------------------
---------------------------------------------
---------------------------------------------
---------------------------------------------


  S  S S S  S S  S S  S S  S S S  S S  S  
----12-----13---12---11---12---9-10---10-|
-----------------------------------------|
--L----9-9----9----9----9----9------9----|
-----------------------------------------|
-----------------------------------------|
-----------------------------------------|


   S S  S S S  S S  S S  S  S  S  S  S S S  
---L-9-----------9-10-9-13-12--------------|
-------11-8-8-11--------------15-14--------|
------------------------------------12-7-9-|
-------------------------------------------|
-------------------------------------------|
-------------------------------------------|


  S  S S S  S S  S S  S S  S S S  S S  S  
----12-----13---12---11---12---9-10---10-|
-----------------------------------------|
--L----9-9----9----9----9----9------9----|
-----------------------------------------|
-----------------------------------------|
-----------------------------------------|


   S S  S S S  S S  S S  S  S  S  S  S S S  
---L-9-----------9-10-9-13-12--------------|
-------11-8-8-11--------------15-14--------|
------------------------------------12-7-9-|
-------------------------------------------|
-------------------------------------------|
-------------------------------------------|


  S  S S S  S S  S S  S S  S S S  S S  S  
----12-----13---12---11---12---9-10---10-|
-----------------------------------------|
--L----9-9----9----9----9----9------9----|
-----------------------------------------|
-----------------------------------------|
-----------------------------------------|


   S S  S S S  S S  S S  S  S  S  S  S S S  
---L-9-----------9-10-9-13-12--------------|
-------11-8-8-11--------------15-14--------|
------------------------------------12-7-9-|
-------------------------------------------|
-------------------------------------------|
-------------------------------------------|


  S  S S S  S S  S S  S S  S S S  S S  S  
----12-----13---12---11---12---9-10---10-|
-----------------------------------------|
--L----9-9----9----9----9----9------9----|
-----------------------------------------|
-----------------------------------------|
-----------------------------------------|


   S S  S S S  S S  S S E.  Q     
---L-9-----------9-10------------|
-------11-8-8-11-----------------|
---------------------------------|
---------------------------------|
---------------------------------|
---------------------------------|


  W                W                 
------------------------------------|
------------------------------------|
------------------------------------|
------------------------------------|
------------------------------------|
------------------------------------|


  W                 
-------------------|
-------------------|
-------------------|
-------------------|
-------------------|
-------------------|


  W                W                 
------------------------------------|
------------------------------------|
------------------------------------|
------------------------------------|
------------------------------------|
------------------------------------|


  W                W                 
------------------------------------|
------------------------------------|
------------------------------------|
------------------------------------|
------------------------------------|
------------------------------------|


  W                 
-------------------|
-------------------|
-------------------|
-------------------|
-------------------|
-------------------|


  W                W                 
------------------------------------|
------------------------------------|
------------------------------------|
------------------------------------|
------------------------------------|
------------------------------------|


  W                W                 
------------------------------------|
------------------------------------|
------------------------------------|
------------------------------------|
------------------------------------|
------------------------------------|


  W                W                 
------------------------------------|
------------------------------------|
------------------------------------|
------------------------------------|
------------------------------------|
------------------------------------|


  W                 
-------------------|
-------------------|
-------------------|
-------------------|
-------------------|
-------------------|


  W                W                 
------------------------------------|
------------------------------------|
------------------------------------|
------------------------------------|
------------------------------------|
------------------------------------|


  W                W                 
------------------------------------|
------------------------------------|
------------------------------------|
------------------------------------|
------------------------------------|
------------------------------------|


  W                 
-------------------|
-------------------|
-------------------|
-------------------|
-------------------|
-------------------|


  W                W                 
------------------------------------|
------------------------------------|
------------------------------------|
------------------------------------|
------------------------------------|
------------------------------------|


  W                W                 
------------------------------------|
------------------------------------|
------------------------------------|
------------------------------------|
------------------------------------|
------------------------------------|


  W                W                 
------------------------------------|
------------------------------------|
------------------------------------|
------------------------------------|
------------------------------------|
------------------------------------|


  W                W                 
------------------------------------|
------------------------------------|
------------------------------------|
------------------------------------|
------------------------------------|
------------------------------------|


  W                W                 
------------------------------------|
------------------------------------|
------------------------------------|
------------------------------------|
------------------------------------|
------------------------------------|


  W                W                 
------------------------------------|
------------------------------------|
------------------------------------|
------------------------------------|
------------------------------------|
------------------------------------|


  W                W                 
------------------------------------|
------------------------------------|
------------------------------------|
------------------------------------|
------------------------------------|
------------------------------------|


  W                W                 
------------------------------------|
------------------------------------|
------------------------------------|
------------------------------------|
------------------------------------|
------------------------------------|


   >                  >                      
   S  S  S  S  S  S   S    S    S    S    S  
---------------------------------------------
--13-13-13-13-13-13-(12)-(12)-(12)-(12)-(12)-
--12-12-12-12-12-12--11---11---11---11---11--
--10-10-10-10-10-10---9----9----9----9----9--
--10-10-10-10-10-10---9----9----9----9----9--
---------------------------------------------


                       >           >         
  Q.     Q.     Q.     S S S S S S S S S S S 
---------------------------------------------
---------------------------------------------
--8------7------5------4-4-4-4-4-4-4-4-4-4-4-
---------------------------------------------
--6------5------3------2-2-2-2-2-2-2-2-2-2-2-
---------------------------------------------


                   >  >  >  >  >  >  >  >  > 
   Q.      Q.      S  S  S  S  S  S  S  S  S 
---------------------------------------------
---------------------------------------------
--12------14------11-11-11-11-11-11-11-11-11-
---------------------------------------------
--10------12-------9--9--9--9--9--9--9--9--9-
---------------------------------------------


   Q.      Q.      Q.      Q.       S    S   
---------------------------------------------
---------------------------------------------
--16------17------20------14b------14pb-14pb-
---------------------------------------------
--14------15------18-------------------------
---------------------------------------------






Duration Legend
---------------
W - whole
H - half
Q - quarter
E - 8th
S - 16th
T - 32nd
X - 64th
. - note dotted
|-n-|  - n-tuplets


Tablature Legend
----------------
L - tied note
x - dead note
g - grace note
(n) - ghost note
> - accentuded note
NH - natural harmonic
AH - artificial harmonic
TH - tapped harmonic
SH - semi harmonic
PH - pitch harmonic
h - hammer on
p - pull off
b - bend
br - bendRelease
pb - preBend
pbr - preBendRelease
brb - bendReleaseBend
\n/ - tremolo bar dip
\n - tremolo bar dive
-/n - tremolo bar Release up
/n\ - tremolo bar inverted dip
/n - tremolo bar return
-\n - tremolo bar Release down
S - shift slide
s - legato slide
/ -  slide into from below or out of upwards
\ -  slide into from above or out of downwards
~ - vibrato
W - wide vibrato
tr - trill
TP - tremolo picking
T - tapping
S - slap
P - pop
< - fade in
^ - brush up
v - brush down
Tap to rate this tab
# A B C D E F G H I J K L M N O P Q R S T U V W X Y Z