Song name
# A B C D E F G H I J K L M N O P Q R S T U V W X Y Z

Opeth - Burden Acoustic tab

Help us improve GuitareTab! Take a short survey!
Ignore the timing... the notation should be pretty close though.  

Opeth - Burden Ending Acoustic Solo Tab
Tabbed By: Darrell Edwards



E||--------------------------------------------|
B||--------------------------------------------|
G||--10--9---------10--9---------10--9------9--|
D||---------12--0---------12--0---------12-----|
A||--------------------------------------------|
E||--------------------------------------------|

 
-----------------------------------------------------------|
-------------------------------------------15------13------|
--10--12-13-12-10----------------------12------12------12--|
------------------12-10------------------------------------|
------------------------12-10------------------------------|
------------------------------12-10------------------------|



-------------------------------------------------|
-------------------------15------13------11------|
--10------12---------12------12------12------12--|
------12------12---------------------------------|
-------------------------------------------------|
-------------------------------------------------|



--------------------------------------------8--|
--10--10--10-----10--11--10-------------10-----|
-----------------------------10--7--10---------|
-----------------------------------------------|
-----------------------------------------------|
-----------------------------------------------|


---------------------8------10-----------------|------|
--10-------------10-----10------10-------------|--10--|
------10--7--10---------------------10--7--10--|------|
-----------------------------------------------|------|
-----------------------------------------------|------|
-----------------------------------------------|------|

  
-----------------------8--------------------|------------||
------------8--10--11-----10--8--10---------|------------||
--7--9--10---------------------------10--9--|--7--9--10--||
--------------------------------------------|------------||
--------------------------------------------|------------||
--------------------------------------------|------------||



Related for Burden Acoustic tab