Song name
# A B C D E F G H I J K L M N O P Q R S T U V W X Y Z

Opeth - Wrought tab

0:01-0:48
INTRO:              repeat x3
-1-1-1-1-2-3-4-3-3-3-4-6-7-5-6-6-6-4-5-4--2--8----8---6-4-1-1-----------|
2-2-3-4-5-6-7-5-3--2-2-1-1-3--5-5--3-2-2-4-5-6-6-7-6-6-6-3-2-1----------|
3-2-3-4-5-3-2-1-4-5-6--6-4-3-3-6-6-6-6-6-6-3-2-3-2-3-4-5-6-6-6----------|
------------------------------------------------------------------------|
------------------------------------------------------------------------|
----------------------------------------------------------------------12|


0:50-1:07
guitar 1
1-2-3--4-3-2--12--3--4--4-4--3--2--3--4--3--2--2-3-4-4--3----1--2-3--4--|
1-2-3--4-3-2--12--3--4--4-4--3--2--3--4--3--2--2-3-4-4--3----1--2-3--4--|
------------------------------------------------------------------------|
------------------------------------------------------------------------|
------------------------------------------------------------------------|
------------------------------------------------------------------------|

1:07-1:23
both guitars
1-1--1-1--1-1--1-2-4-3---1-1--1-1--1-1--1-2-4-3-4--1-1--1-1-1--1-1-1-1-1|
1-1--1-1--1-1--1-2-4-3---1-1--1-1--1-1--1-2-4-3-4--1-1--1-1-1--1-1-1-1-1|
1-1--1-1--1-1--1-2-4-3---1-1--1-1--1-1--1-2-4-3-4--1-1--1-1-1--1-1-1-1-1|
------------------------------------------------------------------------|
------------------------------------------------------------------------|
------------------------------------------------------------------------|

1:26-2:13
repeat x3
-1-1-1-1-2-3-4-3-3-3-4-6-7-5-6-6-6-4-5-4--2--8----8---6-4-1-1------9----|
2-2-3-4-5-6-7-5-3--2-2-1-1-3--5-5--3-2-2-4-5-6-6-7-6-6-6-3-2-1----8-7---|
3-2-3-4-5-3-2-1-4-5-6--6-4-3-3-6-6-6-6-6-6-3-2-3-2-3-4-5-6-6-6---9---8--|
------------------------------------------------------------------------|
------------------------------------------------------------------------|
-----------------------------------------------------------------------9|




Tap to rate this tab
 
# A B C D E F G H I J K L M N O P Q R S T U V W X Y Z