Song name
# A B C D E F G H I J K L M N O P Q R S T U V W X Y Z

Opeth - Heir Apparent tab

-------------------------------------------------------------------------------
			     Heir Apparent - Opeth
-------------------------------------------------------------------------------
Tabbed by: Kamelot098
Email:

Tuning: E standard (I'm pretty sure)


 Both guitars
e|---------------------------------------------------------------------------|
B|---------------------------------------------------------------------------|
G|--3--------------------------------------3---------------------------------|
D|--2--------------------------------------2---------------------------------|
A|--1--------------------------------------1---------------------------------|
E|--0--------------------------------------0---------------------------------|

e|---------------------------------------------------------------------------|
B|---------------------------------------------------------------------------|
G|---------------------------------------------------------------------------|
D|---------------------------------------------------------------------------|
A|---x-\---------------------------------------------------------------------|
E|---x-\------------/18~~----------------------------------------------------|

  Guitar 1
e|---------------------------------------------------------------------------|
B|--------0-----0------0-----0-----------------------------------------------|
G|---------------------------------------------------------------------------|
D|----/9-----8---------------------8-b-r-------------------------------------|
A|----------------10-----9-----7---------------------------------------------|
E|-0-----------------------------------------------/18~~---------------------|

e|---------------------------------------------------------------------------|
B|---------0-----------------------------------------------------------------|
G|------------/14------------------------------------------------------------|
D|-----/9----------13--14--15--14--14----------------------------------------|
A|--------------------------------------14--13~~~~---------------------------|
E|-0-------------------------------------------------------------------------|

 Guitar 2
e|---------------------------------------------------------------------------|
B|---------------------------------------------------------------------------|
G|---------------------------------------------------------------------------|
D|--2----------------------------4-------------------------------------------|
A|--2----------------------------4----------------/13~~----------------------|
E|--0----------------------------2-------------------------------------------|

e|---------------------------------------------------------------------------|
B|---------------------------------------------------------------------------|
G|------------------4------3-------------------------------------------------|
D|--2---------------4------3-------------------------4-----------------------|
A|--2---------------2------1-------------------------4-----------------------|
E|--0------------------------------------0-0-0-------2-----------------------|
                                         . . .
There you go. just play the last two bars twice and you are set.
You guys are smart enough to figure out the timing and stuff. Opeth rules.

| /  slide up
| \  slide down
| h  hammer-on
| p  pull-off
| ~  vibrato
| +  harmonic
| x  Pick slide
===============================================================================
Tap to rate this tab
 
# A B C D E F G H I J K L M N O P Q R S T U V W X Y Z