Song name
# A B C D E F G H I J K L M N O P Q R S T U V W X Y Z

Opeth - Cody You Birthday Song tab

-------------------------------------------------------------------------------
		Cody, you C*** (Birthday Song)-Opeth
-------------------------------------------------------------------------------
Tabbed by:C.J. DuQuaine
Email:slycoop95@yahoo.com

Tuning:Standard

Taken from this Youtube video: http://www.youtube.com/watch?v=twpt5GqtAYo

e|---------------------------------------------------| Repeat x1
B|---------------------------------------------------|
G|-x11-x6--x4---x11-x6-------------------------------|
D|-2---5---7-----2--5---7----------------------------| Replace Line with
A|-2---5---7-----2--5---7----------------------------| "Cody."
E|-0---3---5-----0--3---5----------------------------|
                          It's your birthday.
e|---------------------------------------------------------------------------|
B|---------------------------------------------------------------------------|
G|-x11--x6--x4--x11--x6------------------------------------------------------|
D|--2---5---7----2---5---7~--5~--2~------------------------------------------|
A|--2---5---7----2---5---7~--5~--2~------------------------------------------|
E|--0---3---5----0---3---5~--3~--0~------------------------------------------|

It's really hard to make out the ending solo but I can tell it's pentatonic

| /  slide up
| \  slide down
| h  hammer-on
| p  pull-off
| ~  vibrato
| +  harmonic
| x  Mute note
===============================================================================
Tap to rate this tab
 
# A B C D E F G H I J K L M N O P Q R S T U V W X Y Z