Song name
# A B C D E F G H I J K L M N O P Q R S T U V W X Y Z

Opeth - Benighted tab

eh, this sounds more like it
E-----------------------7p0-----------------------------------------------|
B----------10--7h8-----------------------------8-10-11-11-10p8--8p7/10----|
G------------------7/5---------------9/9-/9-------------------9-----------|
D-------/9--------------------9/7/9---------------------------------------|
A-------------------------------------------------------------------------|
E--0----------------------------------------------------------------------|

E---------------------------------15-14-11--------------------------------|
B---8p7-------------------------x---------12------------------------------|
G--------9-7-------------------x------------12-11-9-11-12-7h9-7h9-7-------|
D-------------(9)/7-5-4---------------------------------------------------|
A-------------------------------------------------------------------------|
E-------------------------------------------------------------------------|

E-12----------------------------------------------------------------------|
B----12-13--10----------------------------------------------8/10---12-----|
G-9---------------11/9/11--9-----7-9----------------9--7p9-------11-------|
D----9--10--7------------------------9-8-7p5-------9-9--------------------|
A--------------------------------------------7-5/7------------------------|
E-------------------------------------------------------------------------|

E----------------------------------------/7-/7----------------------------|
B------10----------------7---7------7-------------------------------------|
G-11/9----9p7------------7---7h9p7--7----/9-/9--7---------7/9---7h9-------|
D-------------7h9-----7h9--9-------9--9-----------9/7-5-------9------9/10-|
A-------------------------------------------------------7-----------------|
E-------------------------------------------------------------------------|
Tap to rate this tab
 
# A B C D E F G H I J K L M N O P Q R S T U V W X Y Z