Song name
# A B C D E F G H I J K L M N O P Q R S T U V W X Y Z

Opeth - The Twilight Is My Robe tab

OK, full credit to Zappp who did an awesome job tabbing this song. All I have done is
adjusted the solo so some of the notes are played on different strings. It means you
dont have to change position as much. Particulary the first part (which I think is
played by Mike) can be played largely in the Gm pentatonic scale at the 10th fret.

Once again I did not tab this, so credit Zappp, not me. I simply made it slightly
easier (at least in my opinion).

    Mikael Akerfeldt's part (probably, its more bluesy)
e|-----------------------------------------------------------------15p11----
B|--------------------------------11-13-11-10-10h11p10-------10-11----------
G|-10h12-12-12p10p8------12-10-12----------------------10h12----------------
D|------------------10------------------------------------------------------
A|--------------------------------------------------------------------------
E|--------------------------------------------------------------------------

e|----------------------------8-----8-----8-----8-11p8----------------------
B|-14-13-11----13p11----------11b13-11b13-11b13--------11-9-11p9p8----------
G|----------10-------12-10-----------------------------------------10-8-7---
D|--------------------------------------------------------------------------
A|--------------------------------------------------------------------------
E|--------------------------------------------------------------------------

e|--------------------------------------------------------------------------
B|----------8-11p8----------8-11p8-11-11b13---------------------------------
G|-8-10b11---------10-10b11-------------------------------------------------
D|--------------------------------------------------------------------------
A|--------------------------------------------------------------------------
E|--------------------------------------------------------------------------
    Peter Lindgrens' part (Starts as Mikes ends)
e|--------------------------8-8-10-8------------------------8-10-11-15-15b17
B|--------------8-9-11-9-11----------11/13-11-8h11-8-8-9-11-----------------
G|-12p10-8-7----------------------------------------------------------------
D|-----------10-------------------------------------------------------------
A|--------------------------------------------------------------------------
E|--------------------------------------------------------------------------

e|-15-15b17 15b17-15-15-----------------------------------------------------
B|---------------------------------------------------/15-13~~~~~~-----------
G|-----------------------------12----/13-12h13-12-10------------------------
D|------------------------9h10----10----------------------------------------
A|--------------------------------------------------------------------------
E|--------------------------------------------------------------------------
Tap to rate this tab
# A B C D E F G H I J K L M N O P Q R S T U V W X Y Z