Opeth - Den Standiga Resan chords

Highlighted       Show chord diagrams
Opeth - Den ständiga resan (Marie Fredrikson cover)

Capo 2 

Chords (absolute, transpose 2 steps down for relative to capo):

    F#m  Bm   E   C#   D
e----0----0---2----2---0--
B----0----1---3----4---1--
G----0----2---2----4---0--
D----2----2---0----4---2--
A----2----0--------2---3--
E----0--------------------


Intro:

e|-------------------|-------------------|--------------------|-----------------|
B|-----------0-------|----------0--------|-----------------0--|-----------------|
G|--------0----------|-----0----------0--|--------2-----2-----|----------2------|
D|-----0----------4--|--(4)--------4-----|-----0-----4--------|-----4-----------|
A|-------------------|-------------------|--------------------|-----------------|
E|--0----------------|-------------------|--0-----------------|--0--------------|


e|--------------------|-------------------|--------------------|-----------------|
B|-----------------0--|-------------------|-----------------0--|-----------------|
G|--------0-----0-----|----------0--------|--------2-----2-----|----------2------|
D|-----0-----4--------|-----4-------0--4--|-----0-----4--------|-----4-----------|
A|--------------------|-------------------|--------------------|-----------------|
E|--0-----------------|--0----------------|--0-----------------|--0--------------|

F#m 

Fills (fret 12 and 9, absolute):

e|-10-10-10-10--7--7-7--| |--10--10--7-------|
B|-0--0--0--0---0--0-0--| |--0---0---0-------|
G|-0--0--0--0---0--0-0--| |--0---0---0-------|
D|----------------------| |------------------|
A|----------------------| |------------------|
E|----------------------| |------------------|

(Listen to song to get this right.)

F#m                    Bm       E            F#m
När jag tänker på den ständiga resan  genom livet 
F#m      Bm     E         F#m
När det alltid känns som höst 
F#m            Bm               E
Då vänder sig vinden sakta mot norr 
    F#m        
Och blommorna dör 
F#m         Bm     C#    F#m
Det faller regn i mina drömmar


F#m        Bm   C#        F#m         
Jag måste resa igen och leta efter tröst 
F#m        Bm    E         F#m
Jag måste leta igen efter ömhetens röst 
F#m        Bm    C#        F#m
Jag måste resa igen till nästa höst 
F#m           Bm          C#     F#m
Den ständiga resan  till nästa höst


F#m                     Bm       E         F#m
När jag vandrar på den steniga vägen  genom livet 
F#m      Bm            E         F#m
När det känns som jag bar på en sorg 
F#m            Bm            E
Då gömmer sej solen sakta i moln 
F#m        E  D   
Och ordet är adjö 
F#m           Bm    C#    F#m
Snart faller snö i mina drömmar


F#m        Bm   C#        F#m         
Jag måste resa igen och leta efter tröst 
F#m        Bm    E         F#m
Jag måste leta igen efter ömhetens röst 
F#m        Bm    C#        F#m
Jag måste resa igen till nästa höst 
F#m           Bm          C#     F#m
Den ständiga resan  till nästa höst
F#m               Bm      C#     F#m
Oooo den ständiga resan  till nästa höst
Tap to rate this tab
 
# A B C D E F G H I J K L M N O P Q R S T U V W X Y Z