Song name
# A B C D E F G H I J K L M N O P Q R S T U V W X Y Z

Opeth - Slither tab

E Standard Tuning  EADGBe


Intro riff:

-----------------------------------------------------------------------------|
-----------------------------------------------------------------------------|
---------------0------------------3-------------------0---4p3p0--------------|
---------4------------------4------------------4------------------4p3h4p3p0--|
-----------------------------------------------------------------------------|
-0h2-2----22-----0h2-2----22-----0h2-2-----22--------------------------------|

Verse Riff:

-----------------------------------------------|
-----------------------------------------------|
-----------9h10p9-7-9----7---------------------|  x4
-------7--------------10---9-10--7-9-----------|
---0-0-----------------------------------------|
-----------------------------------------------|

Trans Riff A:

-----------------------------------------------|
-----------------------------------------------|
-----------------------------------------------|
-7--6--5--4--2-5-------------------------------|
-----------------------------------------------|
-5--4--3--2--0-3-------------------------------|

Trans Riff B:
--------------------------------------------------------------|
--------------------------------------------------------------|
--------------------------------------------------------------|     x2
---------4----------4----------4|------4----------4-----------|
-----------xx---------xx--------|--------xx---------xx--------|
---0h2-2---xx-0h2-2---xx-0h2-2--|0h2-2---xx-0h2-2---xx-0h2-2--|


Chorus:
                                                  1st time
----------------------------------------|------------------------------------|
4--4--4->-------------------------------|------------------------------------|
5--5--5->-------------------------------|----5/7-8-10-12-11------------------|
5--5--5->--------5/7-8--7h8p7p5---------|---5---------------12-10-8----------|
3--3--3->-------5-----------------------|--6---------------------------------|
---------------3------------------------|------------------------------------|

2nd time

----------------------------------------------------------15--2->-------|
---------------------------------------13--15--13--15--16-----2->-------|
---5/7-8-10-12-11--12--14--15--14--15-------------------------3->-------|
--5-----------------------------------------------------------4->-------|
-6------------------------------------------------------------4->-------|
--------------------------------------------------------------2->-------|


After solo, this twice
-----------------------------------------------------------------------------|
-----------------------------------------------------------------------------|
-/5--4--2-4------------------------------------------------------------------|
--------------4---2---4p2----------------------------------------------------|
---------------------------4-2-----------------------------------------------|
--------------------------------5--2-----------------------------------------|

Main acoustic bit:

---3--2h3p2p0-----------------0-2-3--2h3p2p0-----------0-2-|-----------|
--------------0-----------------------------0--------------|-----------|
-----------------0----------3-----------------0------3-----|-----------|
---------------------------4------------------------4------|-----------|
--------------------------4------------------------4-------|-----------|
---0---------------------2--------0---------------2--------|-----------|
Tap to rate this tab
# A B C D E F G H I J K L M N O P Q R S T U V W X Y Z