Song name
# A B C D E F G H I J K L M N O P Q R S T U V W X Y Z

Opeth - Haxprocess tab

Opeth - Haxprocess

Standard Tuning  EADGBe

also check out my guitarpro for this tab
send corrections, additional parts/songs, and/or requests to:                            
               blacklotus25@gmail.com  thanks :)


you will have to listen for the timing on these but it's in 4/4 for a while.

let ring -----------------------------------------------------------|

-0-----------------------------------------------------------|
--0----------------------------------------------------------|
---8\7---0-------------0----------------8--7--0-----8--7--0--|     x2
------6\5-5--------------------------------------------------|
--------------5---------------4--5-4-------------------------|
-----------4\3-3----4\3-/10-----------/8--8--8----/7--7--7---|

Keyboard instrument does this:

-3--2---------------------|--------------------3----3--2----------------|
-------4--3---------------|-----------3--4--6-------------4--3----------|
-------------5--4------x2-|--5--4--5----------------------------5--4----|
-------------------5------|-------------------------------------------5-|
--------------------------|---------------------------------------------|
--------------------------|---------------------------------------------|

Let Ring------------------|

-3-----------3-----------|
----4-----------3--------|
-------5-----------5-----|   x8
----------5-----------5--|
-------------------------|
-3-----------4-----------|

Now 7/8

---------------------------------------------------------------------|
---------------------------------------------------------------------|
----0------0--------0------0---------0------0---------0------0-------|   x2
---4--4---5-0------4--4---5-0-------4--4---5--0------4--4---5--0-----|
---------------0----------------0----------------0----------------0--|
0h2----0h3--/6--0h2----0h3---/6--0h2----0h3---/6--0h2----0h3---/6----|


--------------10------------------------------------------------|
----0--------0--------------0-----------------------------------|
---9--9-----9--------------9--9------7---7----------------------|     x2
-10----10-10-------------10----10---0-0-0-----------------------|
0--------0--------------0--------0h8---7---0--------------------|
----------------------------------------------------------------|

I'll post the rest... soon
Tap to rate this tab
 
# A B C D E F G H I J K L M N O P Q R S T U V W X Y Z