Song name
# A B C D E F G H I J K L M N O P Q R S T U V W X Y Z

Opeth - Face In The Snow tab

 Opeth - Face in the Snow (chords)
 Tabbed by Matti Paalanen
 http://www.mattipaalanen.com

Might be quite a few mistakes, but in general should
feel quite accurate.

Intro


-----------------------------------------------------------|
---------------8-8-8-6----6-----4--------------------------|
-8-5-7----8-10---8-8-5----4-4-5-2-2------8\7-5-------------|
-8-5-4--------------------------4---4-----------4--5-------|
----------------------------------------10\8-6-------------|
-8-5-4-----------8-7-5----4-----2---------------5--3-------|

-----------------------------------------------------------|
---------------8-8-8-6----6-----4--------------------------|
-8-5-7----8-10---8-8-5----4-4-5-2-2------8\7-5-------------|
-8-5-4--------------------------4---4-----------4--5-------|
----------------------------------------10\8-6-------------|
-8-5-4-----------8-7-5----4-----2---------------5--3-------|

-----------------------------------------------------------|
------------------------------8--9-------------------------|
-8---8---7------4-5-7-8-10-12-8--7--5--5-4-----------------|
------------------------------------4--5---5---------------|
-10--10--10----------------------------------5-------------|
-8---8---7------3-5-7-8-10-11-8--7--5--3-------------------|

---8-10-11-11----10----8---6-------5-2------------3-5-3-2------|
--8--------12-12-10-10-8-8-7-7----4-------------3--------------|
-8---------10----8-----7---5-----5------------3-----------5-7--|
--------------------------------4-----------7------------------|
------------------------------------------5--------------------|
----------------------------------------3----------------------|

--3-------3---2-------2---|
--3-3---3-----2-2---2-----|
--3---3-------3---3-------|
--------------------------|
--------------------------|
--3-----------2-----------|


 G#m   Bm    Gdim  F#    Bm/A   G    Em9  D/F#
--4-- --2-- ----- --2-- --2-- --3-- --0-- ----
--4-- --3-- --11- --2-- --3-- --3-- --0-- -(3)
--4-- --4-- ---9- --3-- --4-- --4-- --0-- -(2)
--6-- --4-- --11- --4-- --4-- --5-- --4-- --4-
--6-- --2-- --10- --4-- --0-- --5-- --2-- --5-
--4-- ----- ----- --2-- ----- --3-- --0-- --2-

Structure

G#m
No more wishes for the past
                Bm
No lingering on sages and seers
G#m
Desperations and fevers last
                  Bm
The undertows are stronger here...

Gdim       F#           Bm Bm/A G
And here I lie, another morning arise
Gdim       F#            Bm
Too far away from coming home

G#m
I see a face in the snow,
                 Bm
inside my head a voice calls for me
G#m
I see your face in the snow
                  Bm
and outside the sun is to far away to feel
Gdim       F#           Bm Bm/A G
And here I lie, another morning arise
Gdim    F#               Bm
Too far away from coming home

G#m Bm G#m Bm

Gdim         F#              Bm Bm/A G
And here I lie, another morning arise
Gdim    F#               G  Em9
Too far away from coming home
Gdim         F#              Bm Bm/A        G    D/F#
And could we live within the wake of hidden lies
           Em9     F#
When we're too far away...
Tap to rate this tab
# A B C D E F G H I J K L M N O P Q R S T U V W X Y Z