Song name
# A B C D E F G H I J K L M N O P Q R S T U V W X Y Z

Opeth - Porcelain Heart tab

-------------------------------------------------------------------------------
			     Porcelain Heart - Opeth
-------------------------------------------------------------------------------
Tabbed by: Aays
Email: blankepitaph@live.ca

I'M AWARE that this song is in Drop D, but someone requested a tab in Open C, so please 
do not one-star me to oblivion.

Tuning: CGCGCe (low to high)

Intro
Mikael
e|---------------------------------------------------------------------------|
C|---------------------------------------------------------------------------|
G|--7--9--10/13--13b------4/16----10-15--------------------------------------|
C|---------------------------------------------------------------------------|
G|--7--9--10/13--13b------4/16----10-15--------------------------------------|
C|---------------------------------------------------------------------------|
On every second time, don't play the chord on the fifteenth fret. Just hold the second 
last note

Fredrik
e|---------------------------------------------------------------------------|
C|---------------------------------------------------------------------------|
G|--2--4--5/8---------------------10--3--------------------------------------|
C|--2--4--5/8---------------------10--3--------------------------------------|
G|--2--4--5/8-----7-6-------------10--3--------------------------------------|
C|--2--4--5/8---------4-5---------10--3--------------------------------------|


Verse (Acoustic)
e|---------------------------------------------------------------------------|
C|---------------------------------------------------------------------------|
G|-------------------------0----------------2----1---0-----------------------|
C|--5-----2-------4--5--4----5--4--5------4---4----4---4---------------------|
G|---------------------------------------------------------------------------|
C|-----2-----2-------------------------4-------------------------------------|

end verse on
e|---------------------------------------------------------------------------|
C|---------------------------------------------------------------------------|
G|--2------------------------------------------------------------------------|
C|--2------------------------------------------------------------------------|
G|--2------------------------------------------------------------------------|
C|---------------------------------------------------------------------------|

Intro repeats, and then verse repeats, before giving way to this-
Fredrik
e|---------------------------------------------------------------------------|
C|--10-9-7---7-9-10-9-7---7-9-10-9-7---7-9-----------------------------------|
G|---------9------------9------------9---------------------------------------|
C|---------------------------------------------------------------------------|
G|---------------------------------------------------------------------------|
C|---------------------------------------------------------------------------|
(repeat as many times as necessary)

Mikael
e|---------------------------------------------------------------------------|
C|---------------------------------------------------------------------------|
G|---------------------------------------------------------------------------|
C|--4--2--5----7--5--9----10--9--4---5--4--2---------------------------------|
G|--4--2--5----7--5--9----10--9--4---5--4--2---------------------------------|
C|--4--2--5----7--5--9----10--9--4---5--4--2---------------------------------|
these are just the chords. I'm not going to write out the whole strumming variation 
cause it's pretty obvious

Solo-ish bit
e|-----------------------------------------5-6-5-----------------------------|
C|-----4--4h5---------------------5-4-5-7------------------------------------|
G|-------------7------6-7--/9--7---------------------------------------------|
C|--9--------------/9--------------------------------------------------------|
G|---------------------------------------------------------------------------|
C|---------------------------------------------------------------------------|

e|---------10-----10-12---12b--10--------------------------------------------|
C|--/9---------/9-----------------9-7----------------------------------------|
G|------------------------------------10---/10-9-7---------------------------|
C|--------------------------------------------------9--7h9p7-----------------|
G|-----------------------------------------------------------9-10------------|
C|---------------------------------------------------------------------------|

Epic Acoustic Part
(this is pretty tough to play in Open C...)
e|---------------------------------------------------------------------------|
C|---------------------------------------------------------------------------|
G|--10-----7---------9---------------7----------------9-----9----------------|
C|-----9------9--------9----12-9-------9-----11-9-------9-----9--------------|
G|---------------------------------------------------------------------------|
C|-------9-------9-------9--------9-------9--------9------9-----9------------|

Acoustic Part Ends
e|-------------------------------5-------------------------------------------|
C|-----4-------------------------4-------------------------------------------|
G|--7-----7-----------------4----5-------------------------------------------|
C|--9----------9--/14-12----7------------------------------------------------|
G|--7----------9------------7------------------------------------------------|
C|-------------9-------------------------------------------------------------|

Then the electric guitar bridge plays until fadeout.

Again, I KNOW THIS SONG IS IN DROP D. SOMEONE REQUESTED A TAB IN OPEN C. And I spent 
quite a while making sure it actually works in that tuning. Enjoy, rate, and comment.


************************************

| /   slide up
| \   slide down
| h   hammer-on
| p   pull-off
| ~   vibrato
| +   harmonic
| x   Mute note
| b   Bend
| pb  Pre-bend
| br  Bend release
| pbr Pre-bend release
| brb Bend release bend

************************************
Tap to rate this tab
# A B C D E F G H I J K L M N O P Q R S T U V W X Y Z