Guitaretab - guitar tabs
Song name
# A B C D E F G H I J K L M N O P Q R S T U V W X Y Z

Opeth - Patterns In The Ivy tab

Highlighted       Show chord diagrams
Gregory Isaacs-Night Nurse

You just need two accords in the whole song

   A           G  

e---5---    e---3---
b---5---    b---3---   
G---5---    G---4---
D---7---    D---5---
A---7---    A---5--- 
E---5---    E---3--- 
[ Tab from: ]
   A            G
e---0---    e---3---
b---1---    b---3---
G---2---    G---0---
D---2---    D---0---
A---0---    A---2---
E-------    E---3---

Use the standard reggae off's one of my favourite songs...Simon
Related for Patterns In The Ivy tab