Song name
# A B C D E F G H I J K L M N O P Q R S T U V W X Y Z

Opeth - I Feel The Dark tab

Main Riff
e|----------------------0------0---------0-----------------------------------|
B|---------------------------------------------------------------------------|
G|-2h4h2h0-------------------------------------------------------------------|
D|---------4-2-------2-------2---------2-------------------------------------|
A|---------------------------------------------------------------------------|
E|-----------------0------0----------0------0--------------------------------|

Solo
e|---------------------------------------------------------------------------|
B|----------------------~----------------------------------------------------|
G|----14~--16---11---11/12/11/12/11/12~~11-11/9~-----------------------------|
D|---------------------------------------------------------------------------|
A|-/12~~~--14----9----9/10/9/10/9/10~~---9--9/7~-----------------------------|
E|---------------------------------------------------------------------------|

e|---------------------------------------------------------------------------|
B|---------------------------------------------------------------------------|
G|-------19---16---19--19--19-19/21---14~-----12--11--11/9-------------------|
D|---------------------------------------------------------------------------|
A|--/17-------14---17--17--17-17/19---12~-----10---9---9/7-------------------|
E|---------------------------------------------------------------------------|


Bridge
e|---0-----------------------------------------------------------------------|
B|------0-----------0-----------0--------------------------------------------|
G|---------7-----7-----7-----7-----7--------7--------------------------------|
D|---------------------------------------------------------------------------|
A|---7-----------------------------------7-----7-----------------------------|
E|------------6-----------4-----------0--------------------------------------|

Heavyness
e|---------------------------------------------------------------------------|
B|---------------------------------------------------------------------------|
G|---------------------------------------------------------------------------|
D|--8----6----3------2-------------------------------------------------------|
A|--7----5----2--------------------------------------------------------------|
E|--6----4----1----0--0------------------------------------------------------|

Grooviness 
e|---------------------------------------------------------------------------|
B|---------------------------------------------------------------------------|
G|---------------------------------------------------------------------------|
D|----4h5-2-4-4h5h4h2-----2--------------------------------------------------|
A|----------------------3---1/3-----0----------------------------------------|
E|-2----------------------------2/3---0-2------------------------------------|

Acoustic Grooviness
e|---------------------------------------------------------------------------|
B|---------------------------------------------------------------------------|
G|---------------------------------------------------------------------------|
D|----4h5-2-4-4h5h4h2-----2--------------------------------------------------|
A|----------------------3---1/3-----0----------------------------------------|
E|-2----------------------------2/3---0-2------------------------------------|

e|---------------------------------------------------------------------------|
B|---------------------------------------------------------------------------|
G|----------------------------0----------------------------------------------|
D|--------------------5/4---4---4--------------------------------------------|
A|-0----3h6h3-0-3-6/7-----6--------------------------------------------------|
E|---------------------------------------------------------------------------|

e|---------------------------------------------------------------------------|
B|---------------------------------------------------------------------------|
G|---------------------------------------------------------------------------|
D|----4h5-2-4-4h5h4h2-----2--------------------------------------------------|
A|----------------------3---1/3-----0----------------------------------------|
E|-2----------------------------2/3---0-2------------------------------------|

e|---------------------------------------------------------------------------|
B|---------------------------------------------------------------------------|
G|---------------------------------------------------------------------------|
D|--------------------5/4----------------------------------------------------|
A|-0----3h6h3-0-3-6/7--------------------------------------------------------|
E|--------------------------2------------------------------------------------|

Motherrrrrrrr... of lies!
e|---------------------------------------------------------------------------|
B|---------------------------------------------------------------------------|
G|---------------------------------------------------------------------------|
D|-/11--------12--9--11-11-----------------9/--------2-4-5/------------------|
A|--/9---------9--9---9--9------4/---------7/---2/-----------2/--------------|
E|------------------------------2/--------------0/-----------0/--------------|

Last riff
e|-----------------------------<5>-------------------------------------------|
B|-----------------------------<5>-------------------------------------------|
G|-9--6---6/9/8----8-8---9---------------------------------------------------|
D|---------------------------------------------------------------------------|
A|-7--6---6/7/6----6-6---7---------------------------------------------------|
E|------0--------------------------------------------------------------------|
Tap to rate this tab
# A B C D E F G H I J K L M N O P Q R S T U V W X Y Z