Song name
# A B C D E F G H I J K L M N O P Q R S T U V W X Y Z

Opeth - Hours Of Wealth tab

Opeth - Hours of Wealth (Solo) Tabbed by: Sarpanitu

Just jotted this down quickly as I haven't been able to find a decent version of the
solo anywhere, all the notes are 100% if someone would like to re-do this in Guitar-Pro or
so that the timing is easier to follow or whatever, go nuts, I'm not really big on 
writing music but I just wanted to toss this out there. Enjoy!

/,\ slides
h,p hammer-on & pull-off
^# pre-bent note
#^ bend
r release
~ sustain/vibrato

e|----------------------------|---------------------------------------||
B|----------------------------|---------------------------------------||
G|-----10-12h13p12p10---10----|-----10-12~12h13p12p10---10------------||
D|-/12---------------12---12~-|-/12------------------12---12-10-10h12~||
A|----------------------------|---------------------------------------||
E|----------------------------|---------------------------------------||

e|-----------------------|-------------------------------------||
B|-----------------------|-------------------------------------||
G|-----------------------|-------------------------------------||
D|-12p10-----------------|-----10p9-7h9-5h7--------------------||
A|-------12\10-8-10/12-8~|-/12--------------8h10-7h8p7\5h7p5---||
E|-----------------------|-----------------------------------7~||

e|----------------------------------------|
B|----------------------------------------|
G|-----12-14-14^r~-14^r-12\10\9/10/12~/14~|
D|-/12------------------------------------|
A|----------------------------------------|
E|----------------------------------------|

e|-----------------10-13~-12p10-----------------------------------------|
B|----------/10-13--------------13-10h13-8~-------13--------------------|
G|-----10-12--------------------------------10-12^--12^r10-12-10-9h10p9-|
D|-/12------------------------------------------------------------------|
A|----------------------------------------------------------------------|
E|----------------------------------------------------------------------|

e|----------------------------------------------||
B|----------------------------------------------||
G|----------------------------------------------||
D|-10/12-10------------10-----------------------||
A|----------10-8-10/12----12\10-8-7h8p7h8p7h8p7~||
E|----------------------------------------------||

e|------------------------------------------------------||
B|------------------------------------------------------||
G|---------7-9-10-10/12-10-9-----9-10-12-12/14~-10-9----||
D|-------7-------------------12~---------------------12~||
A|-5-7-8------------------------------------------------||
E|------------------------------------------------------||

e|------------------------|-------------------------------------------||
B|------------------------|-------------------------------------------||
G|-14p12-10h12-9h10-7h9---|-------------------------------------------||
D|----------------------7~|-------------------------------------------||
A|------------------------|---------------------------------------7-8~||
E|------------------------|-----------------------------------3-5-----||

e|-------------------------------------------------||
B|-------------------------------------------------||
G|---7---9---10---10/12-10-12-12/14-14-14-10-10-10~||
D|-----7---7----7----------------------------------||
A|-8-----------------------------------------------||
E|-------------------------------------------------||

e|----------10~-13-10~|-^12r-10----10----|--------------------|
B|-10-11-13-----------|---------13----10~|--------------------|
G|--------------------|------------------|-14^r12-10-9-10/12~\|
D|--------------------|------------------|--------------------|
A|--------------------|------------------|--------------------|
E|--------------------|------------------|--------------------|

e|---------------------------------------------||
B|----------------13-10h11-8h10-6h8------------||
G|-------------10-------------------9h10-7h9-6~||
D|-14/15-12-14---------------------------------||
A|---------------------------------------------||
E|---------------------------------------------||
Tap to rate this tab
 
# A B C D E F G H I J K L M N O P Q R S T U V W X Y Z