Song name
# A B C D E F G H I J K L M N O P Q R S T U V W X Y Z

Opeth - Ending Credits tab

This is my version of Opeth's song "Ending Credits". It combines the chords and melody
into one guitar part. There is a video here -- http://www.youtube.com/watch?v=QRd3bZ4SCc4
-- That you can watch to hear how it should it sound. Also, my guitar is tuned a full 
step down, so the Capo at 2nd fret just puts my guitar in Standard tuning. (All fret
numbers are labeled as though your guitar were in standard)

First, the main chords of the verse:

e--0----0----2--|
B--0----0----0--|
G--0----5----2--|
D--2----7----1--|
A--2----0----2--|
E--0----x----x--|


Verse W/ Melody 1st time through:

e--x-x-----0----5p0-x-8--7p0--7--------------|
B--x-x--5--7--------x-0-------0--------------|
G--4-4/5---5--------x-x-------0--------------|
D--2-2-----7--------7-7-------9--------------|
A--2-2-----0--------6-6-------7--------------|
E--0-0--------------7-7------0---2h3p2-0-3-0-|

Verse w/ meldoy 2nd time through:

e--x-x-----0-x---x------x--x------------x-x--------------|
B--x-x--5--7-7/8-5------x--x------------x-x--------------|
G--4-4/5---5-5---5------8--4--2h4p2-----0-0--------------|
D--2-2-----7-7---7--9/7-7--7--------4-2-2-2--------------|
A--2-2-----0-0---0------6--6------------2-2--------------|
E--0-0-----x-x---x------7--7------------0-0-2h3p2-0-3-0--|

Chorus!
                      v ^ ^ v v ^
e--0-3-3-2h3p2p0--2---5-3-2-3-5-2p0-0--0-0--0------------2~~~--------|
B--1-1-1----------0---0-0-0-0-0-0---1--3-1--0h1--0h1p0---0~~~--------|
G--0-0-0----------2---0-0-0-0-0-0---0--0-0--2----------0-2~~~--4p2p0-|
D--2-2-2----------1---2-----2-2-----2--2-2--2------------1~~~--------|
A--3-3-3----------2---2-----2-2-----3--3-3--0------------2~~~--------|
E--x-x-x----------x---0-----0-0-----x--x-x--x------------x-----------|

Outro from Chorus:

e--0--0-------0--0--------|
B--0--1-------0--1--------|
G--0--0--2p0--0--0--2p0---|
D--4--2-------4--2--------| Repeat as necessary
A--2--3-------2--3--------|
E--0--x-------0--x--------|

Song Structure:

Play Verse w/o melody (2x)
Play verse w/ melody (both parts, twice)
Chorus
Outro
Verses w/ Melodies (twice)
Chorus
Outro

End on Em

Legend:

/ = Slide
h = Hammer
p = pull off
v = Downstroke
^ = Upstroke
~ = let ring
x = Mute or don't play
Tap to rate this tab
# A B C D E F G H I J K L M N O P Q R S T U V W X Y Z