Song name
# A B C D E F G H I J K L M N O P Q R S T U V W X Y Z

Opeth - The Night And The Silent Water tab

The Night And The Silent Water

Guitar: Mikael Akerfeldt

La canción no es Tan fácil, pero tampoco es de esas imposibles.
La saque mucho mejor escuchando su guitarra en el the roundhouse, ya que la de estudio 
varía mucho en los canales stereo.
Seguramente hay errores, pero así juego actualmente.
Cualquier duda o corrección mi mail es: edystoner@gmail.com

Afinación Standart

Riff: Intro

|--------------------------------------------------|
|--------------------------------------------------|
|--------------------------------------------------|
|------5---5p4-2-----------------------------------|
|----2-----------2----6/7--------------------------|
|-0----------------(0)------0--0-0-2—2h3-—5-—5--5--| 6 veces

|---------------------------------------------------------------|
|-----------------------------------------------------------5---|
|---------------------------------------------5-4-5---4-5-4---4-|
|----5-5---5p4-2------1h2---2-0-2--4-2-4--5---------------------|
|----------------2--2-----2-----------------3-------2-----------|
|-0-------------------------------------------------------------|


|---0---------------------------|
|-----0-------------------------|
|-------2--—0h2---2----2/(4)----|
|---------------3---3--3/(5)----|
|-0-----------------------------|
|-----------1----------1/(5)----|


|------------------------------------------------------------------|
|---------6---------------6---------------6---------------6--------|
|-----7-----7---7-----7-----7---7-----7-----7---7-----7-----7---7--|
|---7---7-----7-----7---7-----7-----7---7-----7-----7---7-----7----|
|-5---------------5---------------5---------------5----------------|
|------------------------------------------------------------------|


|-------------------------------|
|-------------------------------|
|-7------2----------------------|
|-7------2------5------7---10---|
|-5------0------5------7---10---|
|---------------3------5---8----|

Riff - 01
|--------------------------------------------------|
|--------------------------------------------------|
|------------7-9--9--------------------------------|
|----7----10---------/6---6---------10-10p9-7h9-7--|
|---8-------------------7--------------------------|
|-10------------------------0--0-------------------|

|----------------------------------------------------|
|----------------------------------------------------|
|--------------7-9—-9--------------------------------|
|--5/7-7-7---10--------/6---6---------10-10p9-7h9-7--|
|-------------------------7--------------------------|
|-----------------------------0--0-------------------| 3 veces

|-----------------------------------------------------------|
|-----------------------------------------------------------|
|-3-3-3h5/7—7/9-9---7p6-6-6--3-3p2---2--------2----------2--|
|----------------------------------5---3---3h5--5-3-2----2--|
|--------------------------------------------------------0--|fin

Riff - 01
|-------------------------------------------------|
|-------------------------------------------------|
|------------7-9--9-------------------------------|
|----7----10--------/6---6---------10-10p9-7h9-7--|
|---8------------------7--------------------------|
|-10-----------------------0--0-------------------|

|----------------------------------------------------|
|----------------------------------------------------|
|--------------7-9—-9--------------------------------|
|--5/7-7-7---10--------/6---6---------10-10p9-7h9-7--|
|-------------------------7--------------------------|
|-----------------------------0--0-------------------| 3 veces

|-----------------------------------------------------------|
|-----------------------------------------------------------|
|-3-3-3h5/7—7/9-9---7p6-6-6--3-3p2---2--------2----------2--|
|----------------------------------5---3---3h5--5-3-2----2--|
|--------------------------------------------------------0--|Fin

Pasaje - 01
|-----------------------------|
|-----------------------------|
|-----------------------------|
|---2---------2---4---5---7---|
|---2-------------------------|
|---0---------0---2---3---5---|

|----------------------------------------|
|----------------------------------------|
|----------------------------------------|
|----------------------3-----------------|
|-------5h7-7--7-----3---3---------------|
|--5--5------------1---------3---3-3--3--| 4 veces

|------------------------------|
|------------------------------|
|--9---7--------7---0----------|
|----------9-------------------|
|------------------------------|
|------------------------------|


Parte Acústica – 01                |-7--..      |-8-------------|.
|----------------------------------|-----------||---------------|
|----------------------------------|-----------||---------------|
|------0----------0----------0-----|----0------||---------------|
|----5---5------5---5------5---5---|--5---5----||------5--------|
|--3---------------------3---------|-----------||----3---3------|
|-------------0--------------------|0----------||--0-------0----|


|-------0--------------0--------------0--------------0--------|
|-----0----0---------0----0---------0----0---------3---3------|
|---0--------------0--------------0--------------2-------2----|
|-2----------2/4-2----------2/5-2----------2/4-0-----------0--|
|-------------------------------------------------------------|
|-------------------------------------------------------------|
                                                                - 4 veces
|-------0--------------0----------------0---------------------|
|-----0----0---------0----0---------0-----0----------4--------|
|---0--------------0--------------2---2-----2------4---4------|
|-2----------2/4-5----------5/7-4----------------4------------|
|----------------------------------------------2--------------|
|-------------------------------------------------------------|

|----------------------|
|----------------------|
|------0----------0----|
|----5---5------5---5--|
|--3-------------------|
|-------------0--------| muchas veces

|------------------------------------------------|
|------------------------------------------8-----|
|-----0----------------------------0---7---9-----|
|---5---5----4---2--4---0--2-----5-----7---9-----|
|-3-------3---------2----------3-------9---7-----|
|------------0----------3--0-----------7---0-----| 2 veces

Riff - 02
|---------------------------------------------------------|
|-----------------------------------------------/5-3------|
|-----------/9-9—9h10-9--\--/5-4h5p4-2----0-2-4-----------|
|-9------------------------------------3--------------2---|
|-----7---------------------------------------------------|
|-------0-------------------------------------------------| 6 veces

Riff - 03
|------------------------------------------------------------|
|------------------------------------------------------------|
|------------------------------------------------------------|
|--------10---9h10p9---------------------------------7-------|
|-3---5--------------10-10-10h12-----------------------7-----|
|--------------------------------10---8-7---5-5---7h8----8---| muchas veces


Pasaje - 02
|------------|
|------------|
|------------|
|------------|
|--------0---|
|--0--4------|

Parte Acústica - 02
|------------------------------------------------------|
|------------------------------------------------------|
|-----1-2---4-5--5---9-9---7---5--4h5p4----------------|
|---2-----------------------------------5--------------|
|-0-----------0---------------------------7--5---0h2h3-|
|----------------------0----------0--------------------| muchas veces

|--------------------------------------------------------|
|--------------------------------------------------------|
|-----1-2---4-5--5---9-9---7---5--4h5p4----------9-------|
|---2-----------------------------------5--------6-------|
|-0-----------0---------------------------7--7---7-------|
|----------------------0----------0--------------0-------|

|--------------|
|--------------|
|--------------|
|--------------|
|--------------|
|--------------|

Parte acústica - 03
|-7--7-7--7-7--7-7-7-7-7--7-7--7-7--7-7-7-7-|
|-8--8-8--8-8--8-8-8-8-7--7-7--7-7--7-7-7-7-|
|-9--9-9--9-9--9-9-9-9-9--9-9--9-9--9-9-9-9-|
|-9--9-9--9-9--9-9-9-9-9--9-9--9-9--9-9-9-9-|
|-7--7-7--7-7--7-7-7-7-7--7-7--7-7--7-7-7-7-|
|-0--0-0--0-0--0-0-0-0-0--0-0--0-0--0-0-0-0-| muchas veces

Riff - 04
|------------------------|
|------------------------|
|-9--9-9--9-9--9-9-9-9-9-|
|------------------------|
|-7--7-7--7-7--7-7-7-7-7-|
|-0--0-0--0-0--0-0-0-0-0-| muchas veces

Riff - 05
|--------------------------------------------------------------------------------------|
|--------------------------------------------------------------------------------------|
|-9---9--9--9--9---9---9--9--9--9---12--12-12-12-12--14--14-14-14-14--16--16-16-16-16--|
|--------------------------------------------------------------------------------------|
|-7---7--7--7--7---9---9--9--9--9---10--10-10-10-10--12--12-12-12-12--14--14-14-14-14--|
|-0---0--0--0--0---0---0--0--0--0---0---0--0--0--0---0---0--0--0--0---0---0--0--0--0---|

|---------------------------------------------------|
|---------------------------------------------------|
|-12--12-12-12-12--12--12-12-12-12--12--12-12-12-12-|
|---------------------------------------------------|
|-10--10-10-10-10--10--10-10-10-10--10--10-10-10-10-|
|-0---0--0--0--0---0---0--0--0--0---0---0--0--0--0--| muchas veces

Final
|------------------------|
|------------------------|
|-4----5----2---0--------|
|-------------------4----|
|-2----0----3-------2----|
|------------------------|

fin.
Tap to rate this tab
# A B C D E F G H I J K L M N O P Q R S T U V W X Y Z