Song name
# A B C D E F G H I J K L M N O P Q R S T U V W X Y Z

Opeth - Hessian Peel tab

                             HESSIAN PEEL (SOLO) - OPETH
-------------------------------------------------------------------------------
Tabbed by: avsHRSHES
E-mail:
I figured this out by watching a Guitar World video of Fredrik Akesson playing the 
solo. Hope this helps you guys out!

Tuning:
palm muted until the last 4 notes
e|--------------------------------------------------------|
B|--17-19-0-12-0-0-17-0-0-10-0-12-12-0-7-0-11-12-12fb~----|
G|--------------------------------------------------------|
D|--------------------------------------------------------|
A|--------------------------------------------------------|
E|--------------------------------------------------------|

e|-------------------------------------7h9h10p9p7/14h15h18|
B|-------12------14-14-12-0-8-7-0-7h8h11------------------|
G|--9-11----9-11------------------------------------------|
D|--------------------------------------------------------|
A|--------------------------------------------------------|
E|--------------------------------------------------------|

e|-p15p14-------------19-------21-21-------19-------------|
B|--------17b19~-17-19----17-19-------19-17----19-17/11---|
G|--------------------------------------------------------|
D|--------------------------------------------------------|
A|--------------------------------------------------------|
E|--------------------------------------------------------|

e|--------14/15/14-------14-------------------------------|
B|--11h12----------12-11----12----------------------------|
G|-----------------------------12-11~---------------------|
D|--------------------------------------------------------|
A|--------------------------------------------------------|
E|--------------------------------------------------------|
Fast alternate picking 
e|--------------------------------------------------------|
B|--------------------------------------------------------|
G|--------------------------------------------------------|
D|-----------------------------12----------------12-14-16-|
A|-----------12-14-16-12-14-16----16-14-12-14-16----------|
E|--12-14-15----------------------------------------------|

e|--------------------------------------------------------|
B|-----------------------------------------------14-15-17-|
G|-----------12----------------12-14-16-12-14-16----------|
D|--12-14-16----16-14-12-14-16----------------------------|
A|--------------------------------------------------------|
E|--------------------------------------------------------|

e|--17b19~------------------------------------------------|
B|--------------------------------------------------------|
G|--------------------------------------------------------|
D|--------------------------------------------------------|
A|--------------------------------------------------------|
E|--------------------------------------------------------|



************************************

| /   slide up
| \   slide down
| h   hammer-on
| p   pull-off
| ~   vibrato
| +   harmonic
| x   Mute note
| b   Bend
| pb  Pre-bend
| br  Bend release
| pbr Pre-bend release
| brb Bend release bend

************************************
Tap to rate this tab
# A B C D E F G H I J K L M N O P Q R S T U V W X Y Z