Song name
# A B C D E F G H I J K L M N O P Q R S T U V W X Y Z

Opeth - Nepenthe tab

-----------------------------------------------------------------------------------
                             Nepenthe (solos) - Opeth
-----------------------------------------------------------------------------------
Tabbed by:avsHRSHES
E-mail:
Hey guys this is my attempt at the first solo of Nepenthe! I took it from live 
versions of the song so there are more notes in there than the album version but 
it should still sound good! hb means a half step bend, qb means quarter note bend, 
and x means you mute the note right after playing it. Hope this helps! If you want 
the second solo let me know in the comments.
Tuning:Standard

e|--------------------------------------------------------|
B|--11(pick with bar depressed then release bar)-11h12p11-|
G|--------------------------------------------------------|
D|--------------------------------------------------------|
A|--------------------------------------------------------|
E|--------------------------------------------------------|

e|--------------------------------------------------------|
B|--p8h11(vibrate with bar then depress)X7h8p5h7p5p4-----|
G|----------------------------------------------------5X--|
D|--------------------------------------------------------|
A|--------------------------------------------------------|
E|--------------------------------------------------------|

e|--------------------------------------------------------|
B|--------4---4-5~-5hbrbp3/2hbrb--------------------------|
G|--3h4h6---6--------------------4p2-1qbrb~---------------|
D|--------------------------------------------------------|
A|--------------------------------------------------------|
E|--------------------------------------------------------|

e|------------------7-11hbrbhbrbp7h11p7-------------------|
B|--11hbrbp8----8-11--------------------11hb~-3~-5hbrb~---|
G|-----------11-------------------------------------------|
D|--------------------------------------------------------|
A|--------------------------------------------------------|
E|--------------------------------------------------------|


************************************

| /   slide up
| \   slide down
| h   hammer-on
| p   pull-off
| ~   vibrato
| +   harmonic
| x   Mute note
| b   Bend
| pb  Pre-bend
| br  Bend release
| pbr Pre-bend release
| brb Bend release bend

************************************
Tap to rate this tab
 
# A B C D E F G H I J K L M N O P Q R S T U V W X Y Z