Song name
# A B C D E F G H I J K L M N O P Q R S T U V W X Y Z

Opeth - Windowpane tab

                                          Artist - Opeth
                                         *****************
                                         Song - Windowpane  
                                        *******************
                                         Album - Damnation
                                        *******************
                                        Tabbed By - Ayreon77
                                       **********************
****************
*CAPO 2nd FRET *
****************

      There are others tabs with solos, they are kinda messy, 
              and this is a little easier to play too.

SOLO 1
*******
01:11      s
[--b----|-7\9-9-10-9----9--b---------|---------h--p-------------------------]
[-12--~~|------------12---12-12-10-9-|---9-10-9-10-9------------------------]
[-------|----------------------------|--x------------11-9---s----brp--------]
[-------|----------------------------|-x------------------11\9-7-9--7----h--]
[-------|----------------------------|--------------------------------9-7-9-]
[-------|----------------------------|--------------------------------------]


[----------|-------b-|----b-r-b-r-b-r-b-r-b-r-|---------------------]
[--s-------|-7---9-9-|-9-9--------------------|-7-9-7--s--7--s---br-]
[-6\8--7-6-|---6-----|------------------------|-------7\6---6\4--6--]
[----------|---------|------------------------|---------------------]
[----------|---------|------------------------|---------------------]
[----------|---------|------------------------|---------------------]


[---------|-------------|-------|------------------------]
[--p---s--|--s--5-7--s--|--h----|------------------------]
[-4-2-4\6-|-4\6-----6\4-|-2-4---|--h-p-------------------]
[---------|-------------|-----6-|-6-7-6---6--s-----------]
[---------|-------------|-------|-------9---7\9-9---s----]
[---------|-------------|-------|-----------------7-\8-9-]



SOLO 2
*******
02:23
&
03:12
[----------------------------------------|---------------------]
[-12-10-----12-10-----12-10-----12-10----|-13-11------13-11----]
[-------9---------9----------9---------9-|-------10---------10-]
[----------------------------------------|---------------------]
[----------------------------------------|---------------------]
[----------------------------------------|---------------------]


[---------------------------------|-------------|------------|---------s---]
[-12-10----h--p-------------------|-------------|--h-----s---|-13-15-15\17-]
[-------9-9-10-9----9----h--------|------h---14-|13-14-14\16-|-------------]
[----------------12----10-12-9----|----12-14----|------------|-------------]
[------------------------------12-|-12----------|------------|-------------]
[---------------------------------|-------------|------------|-------------]



SOLO 3
*******
04:37
[-----------|----------------|-guitar 2------------]
[-----------|----------------|-9-10-7--9-10-7------]
[-----------|--s-----s-------|--------------p------]
[-9-7-6-7---|-7\9-7-9\11-9-7-|-9-11-7--9-7-7-6---7-]
[---------9-|----------------|-----------------9---]
[-----------|----------------|---------------------]X2



SOLO 4
*******
05:12
[-----------s------|-------------------|-h----h--p--|-h--p------------------]
[----------9\10-9-9|-------br----14-12-|9-10-9-10-9-|9-10-9--------p--------]
[-s---9-11---------|11----13--11-------|------------|-------11-9-11-9---s---]
[9\11--------------|---11--------------|------------|-----------------11\9-7]
[------------------|-------------------|------------|-----------------------]
[------------------|-------------------|------------|-----------------------]

                                      b                    h
[---------|------------------------|-12--br---h----b--b-|-9-10----9---s-----]
[---------|------------------------|----12--10-12-12-12-|------12---12\14---]
[--h-p----|--------s--------h-s----|--------------------|-----------------11]
[-6-7-6-7-|-6-7-9-9\11--7--4-6\7-7-|--------------------|-------------------]
[---------|------------------------|--------------------|-------------------]
[---------|------------------------|--------------------|-------------------]

           p p        s
[--h---7-10-9-7--h---7\9----|---h----b---br----------9--s--br-s----h----]
[-7-10----------7-10-----12-|-12-14-14--14-12--10--9---9\7-9-7\5--5-7---]
[---------------------------|-----------------------------------------6-]
[---------------------------|-------------------------------------------]
[---------------------------|-------------------------------------------]
[---------------------------|-------------------------------------------]
Tap to rate this tab
 
# A B C D E F G H I J K L M N O P Q R S T U V W X Y Z