Song name
# A B C D E F G H I J K L M N O P Q R S T U V W X Y Z

Opeth - Heritage tab

-------------------------------------------------------------------------------
                             Heritage - Opeth (Heritage 2011)
-------------------------------------------------------------------------------
Tabed by: spock
Email: aganovic.k@gmail.com
Guitar cover to piano song.

e|-------8-11-10-8------------------|-----------------------------------------||
B|-----9-----------9---------8-9-8--|-----------------------------------------||
G|--10---------------10-9-10--------|---------------------------10---12-------||
D|----------------------------------|--8----------------10-8------10-11-------||
A|----------------------------------|----10-11-10-8-10-------10------11-------||
E|----------------------------------|-----------------8-----------------------||

e|-------8-11-10-8------------------|-----------------------------------------||
B|-----9-----------9---------8-9-8--|---------------------------------11------||
G|--10---------------10-9-10--------|---------------------------10----10------||
D|----------------------------------|--8----------------10-8------10--10------||
A|----------------------------------|----10-11-10-8-10-------10---------------||
E|----------------------------------|-----------------8-----------------------||


e|--8----------------------------------|--------------8-11-13----12-13-15-16-----||
B|----11-8-9----8-9----11-9-8----------|-------8-9-11---------13(13)---------13--||
G|-----------10-----10--------10-9-----|--9-10-----------------------------------||
D|---------------------------------10--|-----------------------------------------||
A|-------------------------------------|-----------------------------------------||
E|-------------------------------------|-----------------------------------------||

e|-16-15-13-12-------------------------------|------------------------------------8---||
B|-------------13-11-------13----------------|-----------------------------8-9-11---9-||
G|-------------------12-13-----9---------10--|--------------8-------8-10--------------||
D|-------------------------------10-8----10--|---------8-10---10----------------------||
A|------------------------------------10-8---|--8-10-11-------------------------------||
E|-------------------------------------------|----------------------------------------||

Enjoy this beautiful song. Comments and feedback are welcome. :)
Tap to rate this tab
# A B C D E F G H I J K L M N O P Q R S T U V W X Y Z