Song name
# A B C D E F G H I J K L M N O P Q R S T U V W X Y Z

Opeth - The Moor tab

THE MOOR
As recorded by Opeth
From the 1999 Album STILL LIFE
Words and Music by Mikael Åkerfeldt
Arranged by Opeth

          Am                   AmV                  C#m                  Em
      x 0 2 2 1 0          5 7 7 5 5 5          x 4 6 6 5 4          0 2 2 0 0 0

          Fm
      1 3 3 1 1 1

Gtr I (E A D G B E) - 'Clean Guitar 1 / Acoustic Guitar 1'
Gtr II (E A D G B E) - 'Distorted Guitar 1'
Gtr III (E A D G B E) - 'Acoustic Guitar 2'
Gtr IV (E A D G B E) - 'Clean Guitar 2 / Acoustic Guitar 3'
Gtr V (E A D G B E) - 'Distorted Guitar 2'
Gtr VI (E A D G B E) - 'Distorted Guitar 3'

   Intro
    Moderately Q.=62
    B+5    Fm           Gb5    Fm                Dmaj7    Fmaj13  G#6+5    Esus2+5
   4/4
    Gtr I
     Q   E  E  +H        Q   E  E  +H            E   e  E  E   E   E   E   E
||--------------------|------------------------|----(5)---(0)-----(0)--------|
||o--4------1--(1)----|------------------------|-7---7-----3-------6-------7-|
||---0------1--(1)----|--4------1--(1)---------|-6---6-----2-------5-------5-|
||---4------3--(3)----|--5------3--(3)---------|-7---7-----3-------6---------|
||o-------------------|--4------3--(3)---------|-5---5-----------------------|
||--------------------|------------------------|-----------------------0-----|
|
|   Gtr II
|    Q.     E  +H        Q.     E  +Q.    +E     Q.        E  +E   E  +E   E
||--------------------|------------------------|-----------------------------|
||o-12----------------|------------------------|-----------6--(6)--9--(9)\---|
||---------10-(10)----|-12-----13-(13)---(13)\-|-6-------------------------1-|
||--------------------|------------------------|-----------------------------|
||o-------------------|------------------------|-----------------------------|
||--------------------|------------------------|-----------------------------|
|
|   Gtr I
|    W                   W                       W
||--------------------|------------------------|-----------------------------|
||o-------------------|------------------------|-----------------------------|
||--------------------|------------------------|-----------------------------|
||--------------------|------------------------|-----------------------------|
||o-------------------|------------------------|-----------------------------|
||--------------------|------------------------|-----------------------------|


          Em+5    E+5
          |-3-|
  +E   E  S S S E  H     10x +H     H
|-------------------------||-------------------||
|-(7)--------------------o||-------------------||
|-(5)-----5h7p5-----------||-------------------||
|---------5-----5--6------||-(6)---------------||
|------------------------o||-------------------||
|------0------------------||-------------------||
|
|                             >
| +E  +E  Q       +H     10x +W
|-------------------------||-------------------||
|------------------------o||-------------------||
|-(1)-(1)S5-------(5)-----||-(5)---------------||
|-------------------------||-------------------||
|------------------------o||-------------------||
|-------------------------||-------------------||
|
|  W                     10x  H     Q  E. S
|-------------------------||-------------------||
|------------------------o||-------------------||
|-------------------------||--------------4S===||
|-------------------------||-------------------||
|------------------------o||-------------------||
|-------------------------||-------------------||


    Em
   6/8
    Gtr III
    E   S S   S  S  E  S S   S  S       E     S S S S   E  S S  S  S
||--------------------------------|----------------------------------|
||o-----------------0-------------|---------------------0------------|
||------------0----------0------0-|---------------0----------0-----0-|
||--------5------5-----5-----5----|-------------5---5------5----5----|
||o-----7-------------------------|-----------7----------------------|
||--0-----------------------------|-----0----------------------------|
|
|   Gtr I
|   Q        +S  S  Q       +S  S    a  E  a  Q        +Q       S  S
||--------------------------------|----------------------------------|
||o-------------------------------|----------------------------------|
||--9--------(9)---11------(11)---|-11h12-11h12-------(12)-----12-11-|
||---------------9--------------9-|----------------------------------|
||o-------------------------------|----------------------------------|
||--------------------------------|----------------------------------|
|
|   Gtr IV
|   S S S E.       +Q.                  W
||--------------------------------|----------------------------------|
||o-------------------------------|----------------------------------|
||--------------------------------|----------------------------------|
||--0h2-2-2--------(2)------------|----------------------------------|
||o-------------------------------|----------------------------------|
||--------------------------------|----------------------------------|


  E S S  S   S E S S S S   E    S  S S S  E  S S S S
|------------------------|----------------------------|
|--------------0---------|----------------0-----------|
|--------0---------0---0-|-----------0---------0---0--|
|-----5------5---5---5---|---------5---5-----5---5----|
|---7--------------------|------7---------------------|
|-0----------------------|-0--------------------------|
|
| Q     +E     E E   S S   S S +Q        +Q      S S
|------------------------|----------------------------|
|------------------------|----------------------------|
|-9-----(9)\---7h9-------|----------------------------|
|--------------------5s7-|-7s9-(9)-------(9)-----9-7--|
|------------------------|----------------------------|
|------------------------|----------------------------|
|
| W                        W
|------------------------|----------------------------|
|------------------------|----------------------------|
|------------------------|----------------------------|
|------------------------|----------------------------|
|------------------------|----------------------------|
|------------------------|----------------------------|


  Em/Bb           Am7      G5      Em
  S  S  S  S  S S S S  S   S S S   E   S S   S  S  E  S S   S  S
|--------------------------------|-------------------------------|
|--------------------------------|-----------------0-------------|
|---------------0------0-------0-|-----------0----------0------0-|
|----------5--------2--------0---|-------5------5-----5-----5----|
|-------7-----7---0--------------|-----7-------------------------|
|-0h=6---------------------3-----|-0-----------------------------|
|
| S  S  S  E.     E    T T E   S   S S S E.       +Q.
|--------------------------------|-------------------------------|
|--------------------------------|-------------------------------|
|--------------------------------|-------------------------------|
|------------------------------9\|-0h2-2-2--------(2)------------|
|-9h10-10-10------9h==10p9p7-----|-------------------------------|
|--------------------------------|-------------------------------|
|
| Q.              Q          S S   Q        +S  S  Q       +S  S
|--------------------------------|-------------------------------|
|--------------------------------|-------------------------------|
|------------------------------4S|=9--------(9)---11------(11)---|
|--------------------------------|--------------9--------------9-|
|--------------------------------|-------------------------------|
|--------------------------------|-------------------------------|


      E     S S S S   E  S S  S  S   E S S  S   S E S S S S
|----------------------------------|-------------------------|
|---------------------0------------|--------------0----------|
|---------------0----------0-----0-|--------0---------0---0--|
|-------------5---5------5----5----|-----5------5---5---5----|
|-----------7----------------------|---7---------------------|
|-----0----------------------------|-0-----------------------|
|
|     W                              W
|----------------------------------|-------------------------|
|----------------------------------|-------------------------|
|----------------------------------|-------------------------|
|----------------------------------|-------------------------|
|----------------------------------|-------------------------|
|----------------------------------|-------------------------|
|
|  a  E  a  Q        +Q       S  S   Q     +E     E E   S S
|----------------------------------|-------------------------|
|----------------------------------|-------------------------|
|-11h12-11h12-------(12)-----12-11-|-9-----(9)\---7h9--------|
|----------------------------------|--------------------5s7--|
|----------------------------------|-------------------------|
|----------------------------------|-------------------------|


                             1.
                              Em/Bb           Am7      G5
  E    S  S S S  E  S S S S   S  S  S  S  S S S S  S   S S S
|---------------------------|----------------------------------||
|----------------0----------|---------------------------------o||
|-----------0---------0---0-|---------------0------0-------0---||
|---------5---5-----5---5---|----------5--------2--------0-----||
|------7--------------------|-------7-----7---0---------------o||
|-0-------------------------|-0h=6---------------------3-------||
|
| W                           Q.              Q          S S
|---------------------------|----------------------------------||
|---------------------------|---------------------------------o||
|---------------------------|------------------------------4/--||
|---------------------------|----------------------------------||
|---------------------------|---------------------------------o||
|---------------------------|----------------------------------||
|
| S S +Q        +Q      S S   S  S  S  E.     E    T T E   S
|---------------------------|----------------------------------||
|---------------------------|---------------------------------o||
|---------------------------|----------------------------------||
|-7s9-(9)-------(9)-----9-7-|------------------------------9\--||
|---------------------------|-9h10-10-10------9h==10p9p7------o||
|---------------------------|----------------------------------||


 2.
  Em/Bb           Am7    G5       E5
  S  S  S  S  S S S  S S S  S S   H.
|-------------------------------|----------------||
|-------------------------------|----------------||
|---------------0------0------0-|----------------||
|----------5---------2------0---|----------------||
|-------7-----7---0-------------|----------------||
|-0h=6-------------------3------|-0--------------||
|
| Gtrs V, VI
| Q.              E.     E.       Q.   +Q   S S
|-------------------------------|----------------||
|-------------------------------|----------------||
|-----------------2-------------|----------------||
|-----------------2------5------|-2----(2)-------||
|-----------------0------5------|-2----(2)--5h7--||
|------------------------3------|-0----(0)-------||
|
| S  S  S  E.     Q.              W
|-------------------------------|----------------||
|-------------------------------|----------------||
|-------------------------------|----------------||
|-------------------------------|----------------||
|-9h10-10-10--------------------|----------------||
|-------------------------------|----------------||


    Em
    Gtr III
    H.                          +H.
    |                            |
    /                            /

    Gtr V
    E  S  S S S S S  S S S  S    E  S  S S S S S  S S S  S
||----------------------------|----------------------------|
||o---------------------------|----------------------------|
||----------------------------|----------------------------|
||-------10---7-9------8p7----|-------10---7-9------8p7----|
||o----7----7-----7-10-----10-|-----7----7-----7-10-----10-|
||--0-------------------------|--0-------------------------|
|
|   Gtr VI
|   E  S  S S S S S  S S S  S    E  S  S S S S S  S S S  S
||----------------------------|----------------------------|
||o---------------------------|----------------------------|
||----------------------------|----------------------------|
||-------10---7-9------8p7----|-------10---7-9------8p7----|
||o----7----7-----7-10-----10-|-----7----7-----7-10-----10-|
||--0-------------------------|--0-------------------------|
|
|   Gtr II
|   H.                          +H.
||----------------------------|----------------------------|
||o---------------------------|----------------------------|
||----------------------------|----------------------------|
||--2-------------------------|-(2)------------------------|
||o-2-------------------------|-(2)------------------------|
||--0-------------------------|-(0)------------------------|


                               N.C.
  +H.                          W
   |
   /

                               ~~ PM--| ~ PM
   E  S  S S S S S  S S S  S   E. S S S E S S S S
|----------------------------|----------------------||
|----------------------------|---------------------o||
|----------------------------|----------------------||
|-------10---7-9------8p7----|--------------0h1h2---||
|-----7----7-----7-10-----10-|-6--5----------------o||
|--0-------------------------|------0-2-3-0---------||
|
|                              ~~ PM--| ~ PM
|  E  S  S S S S S  S S S  S   E. S S S E S S S S
|----------------------------|----------------------||
|----------------------------|---------------------o||
|----------------------------|----------------------||
|-------10---7-9------8p7----|--------------0h1h2---||
|-----7----7-----7-10-----10-|-3--2----------------o||
|--0-------------------------|------0-2-3-0---------||
|
|                              ~~ PM--| ~ PM
| +H.                          E. S S S E S S S S
|----------------------------|----------------------||
|----------------------------|---------------------o||
|----------------------------|----------------------||
|-(2)------------------------|--------------0h1h2---||
|-(2)------------------------|-3--2----------------o||
|-(0)------------------------|------0-2-3-0---------||


    Em
    H.                            +H.
    |                              |
    /                              /

    E    S  S S S S S  S S S  S    E    S  S S S S S  S S S  S
||------------------------------|------------------------------|
||o-----------------------------|------------------------------|
||------------------------------|------------------------------|
||---------10---7-9------8p7----|---------10---7-9------8p7----|
||o------7----7-----7-10-----10-|-------7----7-----7-10-----10-|
||--0---------------------------|--0---------------------------|
|
|   E    S  S S S S S  S S S  S    E    S  S S S S S  S S S  S
||------------------------------|------------------------------|
||o-----------------------------|------------------------------|
||------------------------------|------------------------------|
||---------10---7-9------8p7----|---------10---7-9------8p7----|
||o------7----7-----7-10-----10-|-------7----7-----7-10-----10-|
||--0---------------------------|--0---------------------------|
|
|   PM----------------------------------------------------------
|   S  S S  S S S S S  S S S  S    S  S S  S S S S S  S S S  S
||------------------------------|------------------------------|
||o-----------------------------|------------------------------|
||------------------------------|------------------------------|
||------------------------------|------------------------------|
||o-----------------------------|------------------------------|
||--0--0-0--0-0-0---0--0-0-0--0-|--0--0-0--0-0-0---0--0-0-0--0-|


                                 N.C.
  +H.                            W
   |
   /

                                 ~~ PM--| ~ PM
   E    S  S S S S S  S S S  S   E. S S S E S S S S
|------------------------------|-----------------------||
|------------------------------|----------------------o||
|------------------------------|-----------------------||
|---------10---7-9------8p7----|--------------0h1h2----||
|-------7----7-----7-10-----10-|-6--5-----------------o||
|--0---------------------------|------0-2-3-0----------||
|
|                                ~~ PM--| ~ PM
|  E    S  S S S S S  S S S  S   E. S S S E S S S S
|------------------------------|-----------------------||
|------------------------------|----------------------o||
|------------------------------|-----------------------||
|---------10---7-9------8p7----|--------------0h1h2----||
|-------7----7-----7-10-----10-|-3--2-----------------o||
|--0---------------------------|------0-2-3-0----------||
|
|---------------------------|    ~~ PM--| ~ PM
|  S  S S  S S S S S  S S S  S   E. S S S E S S S S
|------------------------------|-----------------------||
|------------------------------|----------------------o||
|------------------------------|-----------------------||
|------------------------------|--------------0h1h2----||
|------------------------------|-3--2-----------------o||
|--0--0-0--0-0-0---0--0-0-0--0-|------0-2-3-0----------||


    Em
    H.                          +H.
    |                            |
    /                            /

    E  S  S S S S S  S S S  S    E  S  S S S S S  S S S  S
||----------------------------|----------------------------|
||o---------------------------|----------------------------|
||----------------------------|----------------------------|
||-------10---7-9------8p7----|-------10---7-9------8p7----|
||o----7----7-----7-10-----10-|-----7----7-----7-10-----10-|
||--0-------------------------|--0-------------------------|
|
|   E  S  S S S S S  S S S  S    E  S  S S S S S  S S S  S
||----------------------------|----------------------------|
||o---------------------------|----------------------------|
||----------------------------|----------------------------|
||-------10---7-9------8p7----|-------10---7-9------8p7----|
||o----7----7-----7-10-----10-|-----7----7-----7-10-----10-|
||--0-------------------------|--0-------------------------|
|
|   PM-------------------|       PM-------------------|
|   e  S  S S S S S  S S S  S    e  S  S S S S S  S S S  S
||----------------------------|----------------------------|
||o---------------------------|----------------------------|
||----------------------------|----------------------------|
||----------------------------|----------------------------|
||o-2--2--2-2-2---2--2-2-2----|--2--2--2-2-2---2--2-2-2----|
||--0--0--0-0-0---0--0-0-0----|--0--0--0-0-0---0--0-0-0----|


                               N.C.
  +H.                          W
   |
   /

                               ~~ PM--| ~ PM
   E  S  S S S S S  S S S  S   E. S S S E S S S S
|----------------------------|----------------------||
|----------------------------|---------------------o||
|----------------------------|----------------------||
|-------10---7-9------8p7----|--------------0h1h2---||
|-----7----7-----7-10-----10-|-6--5----------------o||
|--0-------------------------|------0-2-3-0---------||
|
|                              ~~ PM--| ~ PM
|  E  S  S S S S S  S S S  S   E. S S S E S S S S
|----------------------------|----------------------||
|----------------------------|---------------------o||
|----------------------------|----------------------||
|-------10---7-9------8p7----|--------------0h1h2---||
|-----7----7-----7-10-----10-|-3--2----------------o||
|--0-------------------------|------0-2-3-0---------||
|
|  PM-------------------|      ~~ PM--| ~ PM
|  e  S  S S S S S  S S S  S   E. S S S E S S S S
|----------------------------|----------------------||
|----------------------------|---------------------o||
|----------------------------|----------------------||
|----------------------------|--------------0h1h2---||
|--2--2--2-2-2---2--2-2-2----|-3--2----------------o||
|--0--0--0-0-0---0--0-0-0----|------0-2-3-0---------||


  Bb6         Bb    Bbmaj7 C6          C6      Cmaj7
   S  E   E S S E   E.      S  E   E S  S  E   E.
|------------------------|--------------------------|
|------------------------|--------------------------|
|------------------------|--------------------------|
|---------5-7h8-8---7----|---------7-9h10-10---9----|
|-----5------------------|-----7--------------------|
|--6--6-6-6-6-6-6-6-6--0-|-/8--8-8-8-8--8--8-8-8--0-|
|  S  S S E S S S S E  S    S  S S E S  S  S S E  S
|
|  ~~~~~~~~~~~~~~~~~~~~~~~~~~~~~~~~~~~~~~~~~~~~~~~~~~
|  H.                       H.
|------------------------|--------------------------|
|-13---------------------|-17-----------------------|
|------------------------|--------------------------|
|-10---------------------|-14-----------------------|
|------------------------|--------------------------|
|------------------------|--------------------------|
|
|  ~~~~~~~~~~~~~~~~~~~~~~~~~~~~~~~~~~~~~~~~~~~~~~~~~~
|  H.                       H.
|------------------------|--------------------------|
|-13---------------------|-17-----------------------|
|------------------------|--------------------------|
|-10---------------------|-14-----------------------|
|------------------------|--------------------------|
|------------------------|--------------------------|


  (E)                           Esus4      E5    Eb5
            PM--|    PM   PM|
   S  S S S S S S  S S  S S S     S   S  S  S  S  S  +E.  E.
|-----------------------------|-------------------------------||
|-----------------------------|-------------------------------||
|--9--9-9-9-------11---12-----|--14--14-14-16-16-15-(15)\-----||
|-----------------------------|-------------------------------||
|--7--7-7-7--------9---10-----|--12--12-12-14-14-13-(13)\-----||
|--0--0-0-0-0-0-0----0----0-0-|---0---0--0--0--0--0--(0)------||
|
|~~~~~~~~~~~~~~~~~~~~~~~~~~~~~~~~~~~~
|  H.                            +H.
|-----------------------------|-------------------------------||
|-17--------------------------|-(17)--------------------------||
|-----------------------------|-------------------------------||
|-14--------------------------|-(14)--------------------------||
|-----------------------------|-------------------------------||
|-----------------------------|-------------------------------||
|
|~~~~~~~~~~~~~~~~~~~~~~~~~~~~~~~~~~~~
|  H.                            +H.
|-15--------------------------|-(15)--------------------------||
|-----------------------------|-------------------------------||
|-12--------------------------|-(12)--------------------------||
|-----------------------------|-------------------------------||
|-----------------------------|-------------------------------||
|-----------------------------|-------------------------------||


   Interlude & 1st Verse
    E5               F/E                Am/E            N.C.
    Gtr V
     S  S  S S  S  S  S  S  S S  S  S    S  S  S S  S S S S S S S S
||------------------------------------|------------------------------|
||o-----------------------------------|------------------------------|
||---9--9--9----9--9-10-10-10---10-10-|-14-14-14---14---------2------|
||------------------------------------|---------------------6--------|
||o--7--7--7----7--7--8--8--8----8--8-|-12-12-12---12----------------|
||---0--0--0----0--0--0--0--0----0--0-|--0--0--0----0-0-3h4-----4p0--|
|
|   Gtr VI
|    S  S  S S  S  S  S  S  S S  S  S    S  S  S S  S S S S S S S S
||------------------------------------|------------------------------|
||o-----------------------------------|------------------------------|
||--16-16-16---16-16-14-14-14---14-14-|-17-17-17---17---------2------|
||------------------------------------|---------------------6--------|
||o-14-14-14---14-14-12-12-12---12-12-|-15-15-15---15----------------|
||---0--0--0----0--0--0--0--0----0--0-|--0--0--0----0-0-3h4-----4p0--|


  Bm/E             Bbm/E             N.C.
   S  S  S S  S  S  S  S  S S  S S   S S S S S S S S S S S S  6x
|----------------------------------|--------------------------||
|----------------------------------|-------------------------o||
|-16-16-16---16-16-15-15-15---15---|--------------------------||
|----------------------------------|---8---7-----------5------||
|-14-14-14---14-14-13-13-13---13---|-7---7---6-----5-----4---o||
|--0--0--0----0--0--0--0--0----0-0-|-----------5-4---4-----3--||
|
|  S  S  S S  S  S  S  S  S S  S S   S S S S S S S S S S S S  6x
|----------------------------------|--------------------------||
|----------------------------------|-------------------------o||
|-19-19-19---19-19-18-18-18---18---|--------------------------||
|----------------------------------|---8---7-----------5------||
|-17-17-17---17-17-16-16-16---16---|-7---7---6-----5-----4---o||
|--0--0--0----0--0--0--0--0----0-0-|-----------5-4---4-----3--||


 Interlude
  N.C.                              BsCmaj7
  Gtr II
      PM|         PM|           PM|
  S S S S S S S S S S S S   S S S S E E S E.
|-------------------------|---------0-0------|
|-------------------------|---------0-0------|
|-------------------------|---------4-5------|
|-------------------------|------------------|
|-------------------------|---------2-3-3----|
|-1p0-0-0-1p0-1p0-0-0-1p0-|-1p0-0-0-------5\-|


  N.C.                        AmD5A5  B   C
      PM|         PM--------|
  S S S S S S S S S S S S   S e e S S e E S
|-------------------------|------------------|
|-------------------------|------------------|
|-------------------------|------------------|
|-------------------------|------------------|
|-------------------------|---3-5-7---6-6-7--|
|-1p0-0-0-1p0-1p0-0-0-0-0-|-0-5-5-5---7-7-8--|


  N.C.                            BsCmaj7
  ~ PM|         PM|           PM|
  E S S S S S S S S S S   S S S S E E S E.
|-----------------------|---------0-0------|
|-----------------------|---------0-0------|
|-----------------------|---------4-5------|
|-----------------------|------------------|
|-7---------------------|---------2-3-3----|
|---0-0-1p0-1p0-0-0-1p0-|-1p0-0-0-------5\-|


  N.C.                        AmD5A5  B   C
      PM|         PM--------|
  S S S S S S S S S S S S   S e e S S e E S
|-------------------------|-------------------||
|-------------------------|-------------------||
|-------------------------|-------------------||
|-------------------------|-------------------||
|-------------------------|---3-5-7---6-6-7---||
|-1p0-0-0-1p0-1p0-0-0-0-0-|-0-5-5-5---7-7-8---||


 1st Bridge
  N.C.                                BsCmaj7
       PM|         PM|            PM|
   S S S S S S S S S S S S    S S S S E E S E.
|--------------------------|----------0-0------|
|--------------------------|----------0-0------|
|--------------------------|----------4-5------|
|--------------------------|-------------------|
|--------------------------|----------2-3-3----|
|--1p0-0-0-1p0-1p0-0-0-1p0-|--1p0-0-0-------5\-|
|
| Gtrs V, VI
|  ~~~~~~~~~~~~~~~~~~~~~~~~~~~~~~~~~~~~~~~~~~~~~
|  H.                         H.
|--------------------------|-------------------|
|--------------------------|-------------------|
|-11-----------------------|-11----------------|
|--------------------------|-------------------|
|--------------------------|-------------------|
|--------------------------|-------------------|


  N.C.                          AmD5A5  B   C
       PM|         PM--------|
   S S S S S S S S S S S S   S  e e S S e E S
|--------------------------|-------------------|
|--------------------------|-------------------|
|--------------------------|-------------------|
|--------------------------|-------------------|
|--------------------------|----3-5-7---6-6-7--|
|--1p0-0-0-1p0-1p0-0-0-0-0-|-0--5-5-5---7-7-8--|
|
|~~~~~~~~~~~~~~~~~~~~~~~~~~~~~~~
|  H.                        H.
|--------------------------|-------------------|
|--------------------------|-------------------|
|-10-----------------------|-9-----------------|
|--------------------------|-------------------|
|--------------------------|-------------------|
|--------------------------|-------------------|


  N.C.                               BsCmaj7
   ~~~PM|         PM|            PM|
   E  S S S S S S S S S S    S S S S E E S E.
|-------------------------|----------0-0------|
|-------------------------|----------0-0------|
|-------------------------|----------4-5------|
|-------------------------|-------------------|
|--7----------------------|----------2-3-3----|
|-----0-0-1p0-1p0-0-0-1p0-|--1p0-0-0-------5\-|
|
|  ~~~~~~~~~~~~~~~~~~~~~~~~~~~~~~~~~~~~~~~~~~~~
|  H.                        H.
|-------------------------|-------------------|
|-------------------------|-------------------|
|-11----------------------|-11----------------|
|-------------------------|-------------------|
|-------------------------|-------------------|
|-------------------------|-------------------|


  N.C.                          AmD5A5  B   C
       PM|         PM--------|
   S S S S S S S S S S S S   S  e e S S e E S
|--------------------------|--------------------|
|--------------------------|--------------------|
|--------------------------|--------------------|
|--------------------------|--------------------|
|--------------------------|----3-5-7---6-6-7---|
|--1p0-0-0-1p0-1p0-0-0-0-0-|-0--5-5-5---7-7-8---|
|
|~~~~~~~~~~~~~~~~~~~~~~~~~~~~~~~
|  H.                        H.
|--------------------------|--------------------|
|--------------------------|--------------------|
|-10-----------------------|-9------------------|
|--------------------------|--------------------|
|--------------------------|--------------------|
|--------------------------|--------------------|


  N.C.                                BsCmaj7
       PM|         PM|            PM|
   S S S S S S S S S S S S    S S S S E E S E.
|--------------------------|----------0-0------|
|--------------------------|----------0-0------|
|--------------------------|----------4-5------|
|--------------------------|-------------------|
|--------------------------|----------2-3-3----|
|--1p0-0-0-1p0-1p0-0-0-1p0-|--1p0-0-0-------5\-|
|
| Gtr V
|  ~~~~~~~~~~~~~~~~~~~~~~~~~~~~~~~~~~~~~~~~~~~~~
|  H.                         H.
|--------------------------|-------------------|
|--------------------------|-------------------|
|-11-----------------------|-11----------------|
|--------------------------|-------------------|
|--------------------------|-------------------|
|--------------------------|-------------------|
|
| Gtr VI
|  ~~~~~~~~~~~~~~~~~~~~~~~~~~~~~~~~~~~~~~~~~~~~~
|  H.                         H.
|--------------------------|-------------------|
|-10-----------------------|-10----------------|
|--------------------------|-------------------|
|--------------------------|-------------------|
|--------------------------|-------------------|
|--------------------------|-------------------|


  N.C.                          AmD5A5  B   C
       PM|         PM--------|
   S S S S S S S S S S S S   S  e e S S e E S
|--------------------------|-------------------|
|--------------------------|-------------------|
|--------------------------|-------------------|
|--------------------------|-------------------|
|--------------------------|----3-5-7---6-6-7--|
|--1p0-0-0-1p0-1p0-0-0-0-0-|-0--5-5-5---7-7-8--|
|
|~~~~~~~~~~~~~~~~~~~~~~~~~~~~~~~
|  H.                        H.
|--------------------------|-------------------|
|--------------------------|-------------------|
|-10-----------------------|-9-----------------|
|--------------------------|-------------------|
|--------------------------|-------------------|
|--------------------------|-------------------|
|
|~~~~~~~~~~~~~~~~~~~~~~~~~~~~~~~
|  H.                        H.
|--------------------------|-------------------|
|--9-----------------------|-8-----------------|
|--------------------------|-------------------|
|--------------------------|-------------------|
|--------------------------|-------------------|
|--------------------------|-------------------|


  N.C.                               BsCmaj7
   ~~~PM|         PM|            PM|
   E  S S S S S S S S S S    S S S S E E S E.
|-------------------------|----------0-0------|
|-------------------------|----------0-0------|
|-------------------------|----------4-5------|
|-------------------------|-------------------|
|--7----------------------|----------2-3-3----|
|-----0-0-1p0-1p0-0-0-1p0-|--1p0-0-0-------5\-|
|
|  ~~~~~~~~~~~~~~~~~~~~~~~~~~~~~~~~~~~~~~~~~~~~
|  H.                        H.
|-------------------------|-------------------|
|-------------------------|-------------------|
|-11----------------------|-11----------------|
|-------------------------|-------------------|
|-------------------------|-------------------|
|-------------------------|-------------------|
|
|  ~~~~~~~~~~~~~~~~~~~~~~~~~~~~~~~~~~~~~~~~~~~~
|  H.                        H.
|-------------------------|-------------------|
|-10----------------------|-10----------------|
|-------------------------|-------------------|
|-------------------------|-------------------|
|-------------------------|-------------------|
|-------------------------|-------------------|


  N.C.                       E5G#5
       PM|         PM------------------------|
   S S S S S S S S S S S S   E S S  S S S  S S S  S S
|--------------------------|----------------------------||
|--------------------------|----------------------------||
|--------------------------|-------------------7-10-9---||
|--------------------------|---------------6-9----------||
|--------------------------|--------5-8-7---------------||
|--1p0-0-0-1p0-1p0-0-0-0-0-|-0-4-7----------------------||
|
|~~~~~
|  H.                        E S E.     Q.
|--------------------------|----------------------------||
|--------------------------|----------------------------||
|-10-----------------------|----------------------------||
|--------------------------|----------------------------||
|--------------------------|-2-6------------------------||
|--------------------------|-0-4------------------------||
|
|~~~~~
|  H.                        E S E.     Q.
|--------------------------|----------------------------||
|--9-----------------------|----------------------------||
|--------------------------|----------------------------||
|--------------------------|----------------------------||
|--------------------------|-2-6------------------------||
|--------------------------|-0-4------------------------||


 1st Chorus
  Am
  Gtrs V, VI
   E  S S S S E S S S S    E  S S S S E S S S S
|--0--0-0-----0-0-0-----|--0--0-0-----0-0-0-----|
|--1--1-1-----1-1-1-----|--1--1-1-----1-1-1-----|
|--2--2-2-x-x-2-2-2-x-x-|--2--2-2-x-x-2-2-2-----|
|--2--2-2-x-x-2-2-2-x-x-|--2--2-2-x-x-2-2-2-0h2-|
|--0--0-0-x-x-0-0-0-x-x-|--0--0-0-x-x-0-0-0-----|
|-----------------------|-----------------------|
|
| Gtr II
|                          >
|  ~~~~~~~~~~~~~~~~~~~~~~~~~~~
|  H.                     +H.
|-----------------------|-----------------------|
|-----------------------|-----------------------|
|-/9--------------------|-(9)-------------------|
|-----------------------|-----------------------|
|-----------------------|-----------------------|
|-----------------------|-----------------------|


  N.C.                       B5    B5/A  Fmaj7
  S S S S S S S S S E +S     S S S S S S S S S S S S
|--------------------------|--------------------------|
|--------------------------|-----0-----0--------------|
|-------------------9-(9)\-|---------------------2----|
|-------------8---8--------|---4-----4-------0h2---0--|
|-----5s8---7---7----------|-2-----0------------------|
|-0h1-----6----------------|-------------0h1----------|
|
| W                          W
|--------------------------|--------------------------|
|--------------------------|--------------------------|
|--------------------------|--------------------------|
|--------------------------|--------------------------|
|--------------------------|--------------------------|
|--------------------------|--------------------------|


  Am
  E S S S S E S S S S   E S S S S E S S S S
|-0-0-0-----0-0-0-----|-0-0-0-----0-0-0-----|
|-1-1-1-----1-1-1-----|-1-1-1-----1-1-1-----|
|-2-2-2-x-x-2-2-2-x-x-|-2-2-2-x-x-2-2-2-----|
|-2-2-2-x-x-2-2-2-x-x-|-2-2-2-x-x-2-2-2-0h2-|
|-0-0-0-x-x-0-0-0-x-x-|-0-0-0-x-x-0-0-0-----|
|---------------------|---------------------|


  N.C.                       B5    B5/A  Fmaj7
  S S S S S S S S S E +S     S S S S S S S S S S S S
|--------------------------|--------------------------|
|--------------------------|-----0-----0--------------|
|-------------------9-(9)\-|---------------------2----|
|-------------8---8--------|---4-----4-------0h2---0--|
|-----5s8---7---7----------|-2-----0------------------|
|-0h1-----6----------------|-------------0h1----------|


    Am
      E S S  S S   E  S S S S     E  S S  S S E S S  S S
||----0-0-0--------0--0-0-----|---0--0-0------0-0-0------|
||o---1-1-1--------1--1-1-----|---1--1-1------1-1-1------|
||----2-2-2--x-x---2--2-2-x-x-|---2--2-2--x-x-2-2-2------|
||----2-2-2--x-x---2--2-2-x-x-|---2--2-2--x-x-2-2-2--0h2-|
||o---0-0-0--x-x---0--0-0-x-x-|---0--0-0--x-x-0-0-0------|
||----------------------------|--------------------------|
|
|   Gtr II
|                  ~~~~                       ~
|     E E    E     Q.             E  E    E   Q      S S
||----------------------------|--------------------------|
||o---------10---/12----------|-/13-12---10--------------|
||------9---------------------|---------------9-----10p9-|
||--/10-----------------------|--------------------------|
||o---------------------------|--------------------------|
||----------------------------|--------------------------|


  N.C.
                                                PM
  S S S S S S  E S S E   E  S  E    S  E.       S  S S
|----------------------|----------------------------------||
|----------------------|---------------------------------o||
|----------------------|----------------------------------||
|--------------3-3-3---|-------5---/6--5------------------||
|----------------------|----3-------------------0--5s6---o||
|-0h1-1-1-x-x--------3-|-4--------------------------------||
|
| ~~~~~~~~~~~~~~~
| Q.           Q     E   E  S  S S  S  S   S S  S  S S
|----------------------|----------------------------------||
|-------------10-------|--------------12-----------------o||
|-8------------------8-|-7-------9--------10p9------------||
|----------------------|---10-10---10----------12-10p9----||
|----------------------|---------------------------------o||
|----------------------|----------------------------------||


  Am
   E  S S S S E S S S S     E  S S S S E S S S S
|--0--0-0-----0-0-0-----|---0--0-0-----0-0-0-----|
|--1--1-1-----1-1-1-----|---1--1-1-----1-1-1-----|
|--2--2-2-x-x-2-2-2-x-x-|---2--2-2-x-x-2-2-2-----|
|--2--2-2-x-x-2-2-2-x-x-|---2--2-2-x-x-2-2-2-0h2-|
|--0--0-0-x-x-0-0-0-x-x-|---0--0-0-x-x-0-0-0-----|
|-----------------------|------------------------|
|
|                           >
|  ~~~~~~~~~~~~~~~~~~~~~~~~~~~~
|  H.                      +H.
|-----------------------|------------------------|
|-----------------------|------------------------|
|-----------------------|------------------------|
|-10--------------------|-(10)-------------------|
|-----------------------|------------------------|
|-----------------------|------------------------|


  N.C.                       B5    B5/A  Fmaj7
  S S S S S S S S S E +S     S S S S S S S S S S S S
|--------------------------|--------------------------|
|--------------------------|-----0-----0--------------|
|-------------------9-(9)\-|---------------------2----|
|-------------8---8--------|---4-----4-------0h2---0--|
|-----5s8---7---7----------|-2-----0------------------|
|-0h1-----6----------------|-------------0h1----------|
|
| W                          W
|--------------------------|--------------------------|
|--------------------------|--------------------------|
|--------------------------|--------------------------|
|--------------------------|--------------------------|
|--------------------------|--------------------------|
|--------------------------|--------------------------|


  Am
  E S S S S E S S S S   E S S S S E S S S S
|-0-0-0-----0-0-0-----|-0-0-0-----0-0-0-----|
|-1-1-1-----1-1-1-----|-1-1-1-----1-1-1-----|
|-2-2-2-x-x-2-2-2-x-x-|-2-2-2-x-x-2-2-2-----|
|-2-2-2-x-x-2-2-2-x-x-|-2-2-2-x-x-2-2-2-0h2-|
|-0-0-0-x-x-0-0-0-x-x-|-0-0-0-x-x-0-0-0-----|
|---------------------|---------------------|


  N.C.                       B5    B5/A  Fmaj7
  S S S S S S S S S E +S     S S S S S S S S S S S S
|--------------------------|--------------------------|
|--------------------------|-----0-----0--------------|
|-------------------9-(9)\-|---------------------2----|
|-------------8---8--------|---4-----4-------0h2---0--|
|-----5s8---7---7----------|-2-----0------------------|
|-0h1-----6----------------|-------------0h1----------|


  Am
    E S S  S S   E  S S S S     E  S S  S S E S S  S S
|---0-0-0--------0--0-0-----|---0--0-0------0-0-0------|
|---1-1-1--------1--1-1-----|---1--1-1------1-1-1------|
|---2-2-2--x-x---2--2-2-x-x-|---2--2-2--x-x-2-2-2------|
|---2-2-2--x-x---2--2-2-x-x-|---2--2-2--x-x-2-2-2--0h2-|
|---0-0-0--x-x---0--0-0-x-x-|---0--0-0--x-x-0-0-0------|
|---------------------------|--------------------------|
|
| Gtr II
|                ~~~~                       ~
|   E E    E     Q.             E  E    E   Q      S S
|---------------------------|--------------------------|
|---------10---/12----------|-/13-12---10--------------|
|-----9---------------------|---------------9-----10p9-|
|-/10-----------------------|--------------------------|
|---------------------------|--------------------------|
|---------------------------|--------------------------|


  N.C.
                                                PM
  S S S S S S  E S S E   E  S  E    S  E.       S  S S
|----------------------|-------------------------------|
|----------------------|-------------------------------|
|----------------------|-------------------------------|
|--------------3-3-3---|-------5---/6--5---------------|
|----------------------|----3-------------------0--5s6-|
|-0h1-1-1-x-x--------3-|-4-----------------------------|
|
| ~~~~~~~~~~~~~~~
| Q.           Q     E   E  S  S S  S  S   S S  S  S S
|----------------------|-------------------------------|
|-------------10-------|--------------12---------------|
|-8------------------8-|-7-------9--------10p9---------|
|----------------------|---10-10---10----------12-10p9-|
|----------------------|-------------------------------|
|----------------------|-------------------------------|


  Am
    E S S  S S   E  S S S S     E  S S  S S E S S  S S
|---0-0-0--------0--0-0-----|---0--0-0------0-0-0------|
|---1-1-1--------1--1-1-----|---1--1-1------1-1-1------|
|---2-2-2--x-x---2--2-2-x-x-|---2--2-2--x-x-2-2-2------|
|---2-2-2--x-x---2--2-2-x-x-|---2--2-2--x-x-2-2-2--0h2-|
|---0-0-0--x-x---0--0-0-x-x-|---0--0-0--x-x-0-0-0------|
|---------------------------|--------------------------|
|
|                ~~~~                       ~
|   E E    E     Q.             E  E    E   Q      S S
|---------------------------|--------------------------|
|---------10---/12----------|-/13-12---10--------------|
|-----9---------------------|---------------9-----10p9-|
|-/10-----------------------|--------------------------|
|---------------------------|--------------------------|
|---------------------------|--------------------------|


  N.C.                                            D5 Eb5
                                                PM
  S S S S S S  E S S E   E  S  E    S  E.       S  S S
|----------------------|-------------------------------||
|----------------------|-------------------------------||
|----------------------|-------------------------------||
|--------------3-3-3---|-------5---/6--5-----------7s8-||
|----------------------|----3-------------------0--5s6-||
|-0h1-1-1-x-x--------3-|-4-----------------------------||
|
| ~~~~~~~~~~~~~~~
| Q.           Q     E   E  S  S S  S  S   S S  S  S S
|----------------------|-------------------------------||
|-------------10-------|--------------12---------------||
|-8------------------8-|-7-------9--------10p9---------||
|----------------------|---10-10---10----------12-10p9-||
|----------------------|-------------------------------||
|----------------------|-------------------------------||


 Interlude
  Am            Fm            Am              C#m
  Gtr IV
   H.             H.            Q.    E.E.     H.
|-^0----------|-^-1---------|-^-5----^7h8---|-^4--------------|
|-^1----------|-^-1---------|-^-5----^5-----|-^5--------------|
|-^2----------|-^-1---------|-^-5-----------|-^6--------------|
|-^2----------|-^-3---------|-^-7-----------|-^6--------------|
|-^0----------|-------------|---------------|-----------------|
|-------------|-------------|---------------|-----------------|
|
| Gtr I
|  Q.   E.E.      Q.   Q.       Q.    E.E.     Q   +S  S Q.
|-------------|-------------|---------------|-----------------|
|-------------|-------------|---------------|-----------------|
|-------4h5---|-------------|---2-----4h5---|--6---(6)--------|
|--2----------|---6----3----|---------------|----------6-6----|
|-------------|-------------|---------------|-----------------|
|-------------|-------------|---------------|-----------------|
|
| Gtr II
|                 >
|  ~~~~~~~~~~~~~~~~~~~~~~~~~~~~~~~~
|  H.            +H.           +H.             W
|-------------|-------------|---------------|-----------------|
|-------------|-------------|---------------|-----------------|
|-------------|-------------|---------------|-----------------|
|-10----------|-(10)--------|-(10)----------|-----------------|
|-------------|-------------|---------------|-----------------|
|-------------|-------------|---------------|-----------------|


  Am            Fm           Am            C#m
   H.            H.           Q.    E.E.    H.
|-------------|-^1---------|-^5----^7h8--|-^4---------------||
|-^1----------|-^1---------|-^5----^5----|-^5---------------||
|-^2----------|-^1---------|-^5----------|-^6---------------||
|-^2----------|-^3---------|-^7----------|-^6---------------||
|-^0----------|------------|-------------|------------------||
|-------------|------------|-------------|------------------||
|
|  Q.   E.E.     Q.   Q.      Q.    E.E.    Q   +S  S Q.
|-------------|------------|-------------|------------------||
|-------------|------------|-------------|------------------||
|-------4h5---|------------|--2-----4h5--|--6---(6)---------||
|--2----------|--6----3----|-------------|----------6-6-----||
|-------------|------------|-------------|------------------||
|-------------|------------|-------------|------------------||


   2nd Verse
    Am                      Fm
    Gtrs V, VI
    E  S S S S E S S  S S   E  S S S S E  S S S S
    |  | | | | | | |  | |   |  | | | | |  | | | |
    /  / / / / / / /  / /   /  / / / / /  / / / /

    Gtr II
    Q.         E.  E.       Q.         Q.
||------------------------|-----------------------|
||o-----------------------|-----------------------|
||-------------4h==5------|-----------------------|
||--2---------------------|-6----------3----------|
||o-----------------------|-----------------------|
||------------------------|-----------------------|


  AmV                     C#m
  E  S S S S E S S  S S    E S S  S  S E  S S S S
  |  | | | | | | |  | |    | | |  |  | |  | | | |
  /  / / / / / / /  / /    / / /  /  / /  / / / /

  Q.         E.  E.        Q     +S  S Q.          6x
|-----------------------|--------------------------||
|-----------------------|-------------------------o||
|-2----------4h==5------|-/6-----(6)S1-1-----------||
|-----------------------|--------------------------||
|-----------------------|-------------------------o||
|-----------------------|--------------------------||


 2nd Bridge
  Gm         Gm/C# Gm/C    N.C.
  Gtrs V, VI
  E  S S S S S S S S S S    E  S S S S S S S S S S
|------------------------|-------------------------|
|-3--3-3-----------------|-------------------------|
|-3--3-3---3-----3-----3-|-------------------------|
|-5--5-5-5-----5-----5---|-------------------------|
|-5--5-5-----4-----3-----|--1----------------------|
|-3--3-3-----------------|-----3-3-x-x-1h3-3-3-x-x-|
|
| Gtr II
|                           >
| H.                       +H.
|------------------------|-------------------------|
|------------------------|-------------------------|
|-0----------------------|-(0)---------------------|
|------------------------|-------------------------|
|------------------------|-------------------------|
|------------------------|-------------------------|


                           1.,2.,3.,4.               5.
    Gm        Gm/C# Gm/C    N.C.
    E S S S S S S S S S S   E S S S S S S S S S S     E S S S S S S S S S S
||------------------------|------------------------||-----------------------||
||o-3-3-3-----------------|-----------------------o||-----------------------||
||--3-3-3---3-----3-----3-|------------------------||-----------------------||
||--5-5-5-5-----5-----5---|------------------------||-----------------------||
||o-5-5-5-----4-----3-----|-1---------------------o||-1---------------5h6h8-||
||--3-3-3-----------------|---3-3-x-x-1h3-3-3-x-x--||---3-3-x-x-1h3s6-------||


 Transition
  Slightly Slower Q.=56
  Gm              Gsus2/F#       F6add9       Em7
  Gtr III
    S  S S S  S S  E  S S S  S    E  S S S  S  E  S S S S
|------------------------------|--------------------------|
|--11--------11---10--------10-|-10--------10--8--------8-|
|------0---0----0-----0--------|-----0------------0-------|
|--------0--------------0------|-------0------------0-----|
|--10--------------9------9----|--8------8-----7------7---|
|------------------------------|--------------------------|
|
| Gtr II
|   Q.             Q.             Q.           Q.
|------------------------------|--------------------------|
|------------------------------|--------------------------|
|------------------------------|--------------------------|
|------------------------------|--------------------------|
|-/10--------------9-----------|--8------------7----------|
|------------------------------|--------------------------|
|
| Gtrs V, VI
|   Q.             Q.             Q.           Q.
|------------------------------|-10-----------13----------|
|-/11-------------13-----------|-11-----------13----------|
|-/12-------------14-----------|--------------------------|
|------------------------------|--------------------------|
|------------------------------|--------------------------|
|------------------------------|--------------------------|


  Ebmaj7              G5/C#         D
    E  S S   S    S    E  S S S S    S  S   S  S S S   S  S Q
|---------------------------------|------------3s5---------------|
|---8-------------8----8--------8-|---------3------3-------------|
|------0------------------0-------|-----2--------------5s=3p2----|
|--------0------------------0-----|--0---------------------------|
|---6--------6---------4------4---|------------------------------|
|---------------------------------|------------------------------|
|
|   Q.                 Q.            H.
|---------------------------------|------------------------------|
|---------------------------------|------------------------------|
|---------------------------------|------------------------------|
|---------------------------------|------------------------------|
|---6------------------4----------|--5---------------------------|
|---------------------------------|------------------------------|
|
|   Q       +S   +S    Q.            S  S  +Q         +Q.
|-/15------(15)-(15)\-10----------|-10S=8--(8)--------(8)--------|
|-/15------(15)-(15)\-11----------|-11s10-(10)-------(10)--------|
|---------------------------------|------------------------------|
|---------------------------------|------------------------------|
|---------------------------------|------------------------------|
|---------------------------------|------------------------------|


  Gm              Gsus2/F#       F6add9       Em7
    S  S S S  S S  E  S S S  S    E  S S S  S  E  S S S S
|------------------------------|--------------------------|
|--11--------11---10--------10-|-10--------10--8--------8-|
|------0---0----0-----0--------|-----0------------0-------|
|--------0--------------0------|-------0------------0-----|
|--10--------------9------9----|--8------8-----7------7---|
|------------------------------|--------------------------|
|
|   Q.             Q.             Q.           Q.
|------------------------------|--------------------------|
|------------------------------|--------------------------|
|------------------------------|--------------------------|
|------------------------------|--------------------------|
|-/10--------------9-----------|--8------------7----------|
|------------------------------|--------------------------|
|
|   Q.             Q.             Q.           Q.
|------------------------------|-10-----------13----------|
|-/11-------------13-----------|-11-----------13----------|
|-/12-------------14-----------|--------------------------|
|------------------------------|--------------------------|
|------------------------------|--------------------------|
|------------------------------|--------------------------|


  Ebmaj7              G5/C#         D
    E  S S   S    S    E  S S S S    S  S   S  S S S   S  S Q
|---------------------------------|------------3s5---------------|
|---8-------------8----8--------8-|---------3------3-------------|
|------0------------------0-------|-----2--------------5s=3p2----|
|--------0------------------0-----|--0---------------------------|
|---6--------6---------4------4---|------------------------------|
|---------------------------------|------------------------------|
|
|   Q.                 Q.            H.
|---------------------------------|------------------------------|
|---------------------------------|------------------------------|
|---------------------------------|------------------------------|
|---------------------------------|------------------------------|
|---6------------------4----------|--5---------------------------|
|---------------------------------|------------------------------|
|
|   Q       +S   +S    Q.            S  S  +Q         +Q.
|-/15------(15)-(15)\-10----------|-10S=8--(8)--------(8)--------|
|-/15------(15)-(15)\-11----------|-11s10-(10)-------(10)--------|
|---------------------------------|------------------------------|
|---------------------------------|------------------------------|
|---------------------------------|------------------------------|
|---------------------------------|------------------------------|


  Gm              Gsus2/F#       F6add9       Em7
    S  S S S  S S  E  S S S  S    E  S S S  S  E  S S S S
|------------------------------|--------------------------|
|--11--------11---10--------10-|-10--------10--8--------8-|
|------0---0----0-----0--------|-----0------------0-------|
|--------0--------------0------|-------0------------0-----|
|--10--------------9------9----|--8------8-----7------7---|
|------------------------------|--------------------------|
|
|   Q.             Q.             Q.           Q.
|------------------------------|--------------------------|
|------------------------------|--------------------------|
|------------------------------|--------------------------|
|------------------------------|--------------------------|
|-/10--------------9-----------|--8------------7----------|
|------------------------------|--------------------------|
|
|   Q.             Q.             Q.           Q.
|------------------------------|-10-----------13----------|
|-/11-------------13-----------|-11-----------13----------|
|-/12-------------14-----------|--------------------------|
|------------------------------|--------------------------|
|------------------------------|--------------------------|
|------------------------------|--------------------------|


  Ebmaj7              G5/C#         D
    E  S S   S    S    E  S S S S    S  S   S  S S S   S  S Q
|---------------------------------|------------3s5---------------|
|---8-------------8----8--------8-|---------3------3-------------|
|------0------------------0-------|-----2--------------5s=3p2----|
|--------0------------------0-----|--0---------------------------|
|---6--------6---------4------4---|------------------------------|
|---------------------------------|------------------------------|
|
|   Q.                 Q.            H.
|---------------------------------|------------------------------|
|---------------------------------|------------------------------|
|---------------------------------|------------------------------|
|---------------------------------|------------------------------|
|---6------------------4----------|--5---------------------------|
|---------------------------------|------------------------------|
|
|   Q       +S   +S    Q.            S  S  +Q         +Q.
|-/15------(15)-(15)\-10----------|-10S=8--(8)--------(8)--------|
|-/15------(15)-(15)\-11----------|-11s10-(10)-------(10)--------|
|---------------------------------|------------------------------|
|---------------------------------|------------------------------|
|---------------------------------|------------------------------|
|---------------------------------|------------------------------|


    Gm             Gsus2/F#       F6add9         Em7
      S S S S  S S  E S S  S  S    E  S S   S  S  E  S S S S
||------------------------------|----------------------------|
||o--11-------11---10--------10-|-10----------10--8--------8-|
||------0---0----0----0---------|-----0--------------0-------|
||--------0-------------0-------|-------0--------------0-----|
||o--10-------------9------9----|--8--------8-----7------7---|
||------------------------------|----------------------------|
|
|   Gtr V
|     Q        E    Q      E       E  E     E     Q.
||------------------------------|----------------------------|
||o-----------------------------|----------------------------|
||---/7--------7----5-----------|--5h=7----------------------|
||-------------------------8----|----------/8-----5----------|
||o-----------------------------|----------------------------|
||------------------------------|----------------------------|
|
|   Gtr VI
|     Q        E    Q      E       E  E     E     Q.
||------------------------------|----------------------------|
||o-/15-------15---13-----------|-13h15----------------------|
||------------------------15----|---------/15----12----------|
||------------------------------|----------------------------|
||o-----------------------------|----------------------------|
||------------------------------|----------------------------|


  Ebmaj7      G5/C#          D
   E S S  S S   E S S  S S    S  S   S  S S S   S  S Q
|--------------------------|------------3s5--------------|
|--8--------8---8--------8-|---------3------3------------|
|----0------------0--------|-----2--------------5s=3p2---|
|------0------------0------|--0--------------------------|
|--6------6-----4------4---|-----------------------------|
|--------------------------|-----------------------------|
|
|                                    ~~~~~~~~~~~~~~
|  Q      E     Q      E      S  S  +Q         +Q.
|--------------------------|-----------------------------|
|--------------------------|-----------------------------|
|--------------/7----------|-----------------------------|
|--5------5------------8---|--8s=7--(7)--------(7)-------|
|--------------------------|-----------------------------|
|--------------------------|-----------------------------|
|
|                                    ~~~~~~~~~~~~~~
|  Q      E     Q      E      S  S  +Q         +Q.
|--------------------------|-----------------------------|
|-------------/15----------|-----------------------------|
|-12-----12-----------15---|-15s14-(14)-------(14)-------|
|--------------------------|-----------------------------|
|--------------------------|-----------------------------|
|--------------------------|-----------------------------|


  Gm            Gsus2/F#       F6add9        Em7
   S S S S  S S  E S S  S  S     E S S  S  S  E     S S S S
|----------------------------|------------------------------|
|-11-------11---10--------10-|--10--------10--8-----------8-|
|----0---0----0----0---------|-----0----------------0-------|
|------0-------------0-------|-------0----------------0-----|
|-10-------------9------9----|---8------8-----7---------7---|
|----------------------------|------------------------------|
|
|  Q        E    Q      E        Q      E     S  S  Q
|----------------------------|------------------------------|
|----------------------------|------------------------------|
|----------------------------|--/7------5-------------------|
|--5--------5----7------7----|----------------8p=7--5-------|
|----------------------------|------------------------------|
|----------------------------|------------------------------|
|
|  Q        E    Q      E        Q      E     S  S  Q
|----------------------------|------------------------------|
|----------------------------|-/15-----13-------------------|
|-12-------12---14-----14----|---------------15p14-12-------|
|----------------------------|------------------------------|
|----------------------------|------------------------------|
|----------------------------|------------------------------|


  Ebmaj7      G5/C#                  D
   E S S  S S  E   S      S   S  S     S  S S S S S S S Q
|----------------------------------|----------3s5------------||
|--8--------8--8-----------------8-|--------3-----3---------o||
|----0-------------0---------------|------2---------5s3p2----||
|------0------------------0--------|---0---------------------||
|--6------6----4--------------4----|------------------------o||
|----------------------------------|-------------------------||
|
|                                      ~~~~
|  Q      E    E  +E         +E       +H.
|----------------------------------|-------------------------||
|----------------------------------|------------------------o||
|----------------------------------|-------------------------||
|--5------5----7--(7)b8======(7)r==|==(7)--------------------||
|----------------------------------|------------------------o||
|----------------------------------|-------------------------||
|
|                                      ~~~~
|  Q      E    E  +E         +E       +H.
|----------------------------------|-------------------------||
|----------------------------------|------------------------o||
|-12-----12---14-(14)b15====(14)r==|=(14)--------------------||
|----------------------------------|-------------------------||
|----------------------------------|------------------------o||
|----------------------------------|-------------------------||


  Gm             Gsus2/F#       F6add9         Em7
    S S S S  S S  E S S  S  S    E  S S   S  S  E  S S S S
|-----------------------------|----------------------------|
|--11-------11---10--------10-|-10----------10--8--------8-|
|-----0---0----0----0---------|-----0--------------0-------|
|-------0-------------0-------|-------0--------------0-----|
|--10-------------9------9----|--8--------8-----7------7---|
|-----------------------------|----------------------------|
|
|   Q        E    Q      E       E  E     E     Q.
|-----------------------------|----------------------------|
|-----------------------------|----------------------------|
|--/7--------7----5-----------|--5h=7----------------------|
|------------------------8----|----------/8-----5----------|
|-----------------------------|----------------------------|
|-----------------------------|----------------------------|
|
|   Q        E    Q      E       E  E     E     Q.
|-----------------------------|----------------------------|
|-/15-------15---13-----------|-13h15----------------------|
|-----------------------15----|---------/15----12----------|
|-----------------------------|----------------------------|
|-----------------------------|----------------------------|
|-----------------------------|----------------------------|


  Ebmaj7      G5/C#          D                       N.C.
   E S S  S S   E S S  S S    S  S   S  S S S   S  S S S S S
|--------------------------|------------3s5------------------||
|--8--------8---8--------8-|---------3------3----------------||
|----0------------0--------|-----2--------------5s=3---------||
|------0------------0------|--0------------------------------||
|--6------6-----4------4---|-------------------------1p0---0-||
|--------------------------|-----------------------------3---||
|
|                                               >
|                                    ~~~~~~~~~~~~~~
|  Q      E     Q      E      S  S  +Q         +Q.
|--------------------------|---------------------------------||
|--------------------------|---------------------------------||
|--------------/7----------|---------------------------------||
|--5------5------------8---|--8s=7--(7)--------(7)-----------||
|--------------------------|---------------------------------||
|--------------------------|---------------------------------||
|
|                                               >
|                                    ~~~~~~~~~~~~~~
|  Q      E     Q      E      S  S  +Q         +Q.
|--------------------------|---------------------------------||
|-------------/15----------|---------------------------------||
|-12-----12-----------15---|-15s14-(14)-------(14)-----------||
|--------------------------|---------------------------------||
|--------------------------|---------------------------------||
|--------------------------|---------------------------------||


   3rd Verse
    Gm
    S S S S S S S S S S S S   S S S S S S S S S S S S
||--------------------------|---------------------3---|
||o-------------------------|-----------------3-----3-|
||----------0---------0-----|-----3---2p0---3---3-----|
||--------0---0-----0---0---|---5---------5-----------|
||o---0h1-------1h3-------0-|-5-----5-----------------|
||--3-----------------------|-------------------------|


                         1.,2.,3.         4.
  D+          DsusD5  D+  Gm      G5       Bb          N.C.
  S S S S S S S S S S E   E E S S Q.       S S S S S S S S T T S S S
|-------------3---5---6-|-6-5-3h5-3-----||-6p5-3---------------------||
|---------3---3---3---3-|-3-3-3---3----o||-3-----3-------------------||
|---3-3---3-------------|-0-0-0---0-----||-3-------3s2---------------||
|---4-4-----------------|---------------||-------------5p3-----------||
|-5-----5---5---5---5---|--------------o||-----------------4p3p1-3h4-||
|-----------------------|---------------||---------------------------||


    Dm            Dm/A
    S  S S S  S S S  S S S  S S
||---------1-------------1------|
||o------3----3--------3----3---|
||-----2--------2----2--------2-|
||--0---------------------------|
||o---------------0-------------|
||------------------------------|
|
|   Gtr I
|   E.     E.     E.     E.
||------------------------------|
||o-----------------------------|
||---------2------0------2------|
||--0---------------------------|
||o-----------------------------|
||------------------------------|


                                 Instrumental Break
  Bbmaj7        C                 DmaddG5  C   Am     F6E5
  S  S S S  S S S  S S S  S S  4x  S S S S S S S S  S E  S
|--------1-------------0-------||---------------------------|
|------3----3--------1----1---o||--6---3---5---1p0----------|
|----2--------2----0--------0--||----0---0---0------2-2-/4--|
|------------------------------||---------------------------|
|-1-------------3-------------o||--5-------3---0------------|
|------------------------------||------3--------------1--0--|
|
|                                                   ~~
| E.     E.     E.     E.      4x  S S S E   S S S  Q
|------------------------------||---------------------------|
|-----------------------------o||---------------------------|
|--------2------0--------------||--------7-----5h7-/9-------|
|-3--------------------2-------||----5-7--------------------|
|-----------------------------o||-/5------------------------|
|------------------------------||---------------------------|


  G          Am9                DmaddBm+5C   Am    F6E5   G
                                                         3/8
  S S  S S S  S  S  S S S S S    S S S S S S S S S E  S   S S  S S S S
|---------------/5------------|-------------------------|--------------|
|--------0----------0---------|--6---3---5---1p0--------|--------0-----|
|------0--------------5-------|----0---0---0-----2-2-/4-|------0-------|
|---0----0h2------------5s3p2-|-------------------------|---0----0h2---|
|-------------0---------------|--5---2---3---0----------|------------0-|
|-3---------------------------|--------------------1--0-|-3------------|
|
|                ~~~                             ~
| S S  S S S  S  Q.              S S S E   S S S Q        S S  S S S S
|-----------------------------|-------------------------|--------------|
|-6p5----6-8s10---------------|-------------------------|--------------|
|-----/7---------9------------|--------7-----5h7-4------|-5p4----------|
|-----------------------------|----5-7------------------|-----/7-------|
|-----------------------------|-/5----------------------|--------7-----|
|-----------------------------|-------------------------|----------8-5-|


  F#°add4
 6/8
   S  S S S S S S S S S S S   S  S S S S S S S S S S  S
|-/5------------5-----------|-5------------5------------|
|-----0-------0---0-------0-|----0-------0---0--------0-|
|-------5---5-------5---5---|------5---5-------5---5----|
|---------4-----------4-----|--------4-----------4------|
|---------------------------|---------------------------|
|---------------------------|---------------------------|
|
|                                                    Gtr
|  H.                         Q.           Q       S  S
|---------------------------|------------------------!0-|
|---------------------------|------------------------!0-|
|---------------------------|------------------------!0-|
|---------------------------|------------------------!4-|
|---------------------------|------------------------!7-|
|--5------------------------|------------------------!0-|


  Emadd9
   S  S S S S S S S S S S S
|--7------------7-------------|
|-----8-------8---8-------8---|
|-------9---9-------9---9-----|
|---------9-----------9-------|
|-----------------------------|
|-----------------------------|
|
|IV
| +H.
|-(0)-------------------------|
|-(0)-------------------------|
|-(0)-------------------------|
|-(4)-------------------------|
|-(7)-------------------------|
|-(0)-------------------------|


                                 Amadd9
   S  S S S S S  S  S S S S  S    S   S S  S S  S S  S S  S S  S
|--7-------------7-------------|--8---------------8--------------|
|-----8-------8-----8--------8-|-----10--------10---10--------10-|
|-------9---9---------9---9----|--------9----9---------9----9----|
|---------9-------------9------|----------10-------------10------|
|------------------------------|---------------------------------|
|------------------------------|---------------------------------|
|
| +Q.           +Q        S  S   +H.
|-(0)-----------(0)---------!0-|-(0)-----------------------------|
|-(0)-----------(0)---------!0-|-(0)-----------------------------|
|-(0)-----------(0)---------!5-|-(5)-----------------------------|
|-(4)-----------(4)---------!7-|-(7)-----------------------------|
|-(7)-----------(7)---------!0-|-(0)-----------------------------|
|-(0)-----------(0)------------|---------------------------------|


   S   S S  S S  S S  S S  S S  S
|--8---------------8---------------||
|-----10--------10---10--------10--||
|--------9----9---------9----9-----||
|----------10-------------10-------||
|----------------------------------||
|----------------------------------||
|
| +H.
|-(0)------------------------------||
|-(0)------------------------------||
|-(5)------------------------------||
|-(7)------------------------------||
|-(0)------------------------------||
|----------------------------------||


    Asus2           G
     S  S S  S S  S  S  S S  S S S
||----------12------10-------------|
||o-------0----0--------0------0---|
||----------------0-------0--------|
||------7------------------------0-|
||o--0--------------10------10-----|
||---------------------------------|
|
|   Gtr I
|    E.      E    S  Q.
||---------------------------------|
||o-13------12---10-12-------------|
||---------------------------------|
||---------------------------------|
||o--------------------------------|
||---------------------------------|


  Am9    F#madd4+Em             Asus2           G
  S  S S  S  S S S  S S S S S    S  S S  S S  S  S  S S  S S S
|-8-------5------7------------|---------12------10-------------|
|----0-------0------8-----8---|-------0----0--------0------0---|
|------0-------0------9---9---|---------------0-------0--------|
|-7-------4-------------9-----|-----7------------------------0-|
|---------------------------0-|--0--------------10------10-----|
|----------------0------------|--------------------------------|
|
| E.      E.     Q.              E.      E    S  Q.
|-----------------------------|--------------------------------|
|-----------------------------|-13------12---10-12-------------|
|-8------11------9------------|--------------------------------|
|-----------------------------|--------------------------------|
|-----------------------------|--------------------------------|
|-----------------------------|--------------------------------|


  1.
  Am9      F#madd4+Em9     Em7
    S  S S  S  S S  S  S S S S S
|---8-------5-------2------3------||
|------0-------0-------3-----3---o||
|--------0-------0-------0-----0--||
|---7-------4---------------------||
|--------------------------------o||
|-------------------0-------------||
|
|   E.      E.      Q.
|---------------------------------||
|-/17------15------12------------o||
|---------------------------------||
|---------------------------------||
|--------------------------------o||
|---------------------------------||


 2.
  Am9      F#madd4+5 Esus2
 3/8                6/8
    S  S S  S  S S    S  S S  S  S S  S  S S  S  S S
|---8-------5------|--2------------2-----------------||
|------0-------0---|-----5-------5----5----5---------||
|--------0-------0-|-------2h=4----------4----4------||
|---7-------4------|-----------------------------2---||
|------------------|-------------------------------2-||
|------------------|--0------------------------------||
|
|   E.      E.        E.      E.      E.      E.
|------------------|-----------------12------15------||
|-/17------15------|-12------15----------------------||
|------------------|---------------------------------||
|------------------|---------------------------------||
|------------------|---------------------------------||
|------------------|---------------------------------||


 Transition
  A Tempo Q.=62
  Am            Fm           Am             C#m
   H.            W            W              W
|-^0----------|------------|--------------|-----------------|
|-^1----------|------------|--------------|-----------------|
|-^2----------|------------|--------------|-----------------|
|-^2----------|------------|--------------|-----------------|
|-^0----------|------------|--------------|-----------------|
|-------------|------------|--------------|-----------------|
|
| Gtr IV
|  H.            H.           Q.    E.E.     H.
|-^0----------|-^1---------|-^5----^7h8---|-^4--------------|
|-^1----------|-^1---------|-^5----^5-----|-^5--------------|
|-^2----------|-^1---------|-^5-----------|-^6--------------|
|-^2----------|-^3---------|-^7-----------|-^6--------------|
|-^0----------|------------|--------------|-----------------|
|-------------|------------|--------------|-----------------|
|
| Gtr I
|  Q.   E.E.     Q.   Q.      Q.    E.E.     Q   +S  S Q.
|-------------|------------|--------------|-----------------|
|-------------|------------|--------------|-----------------|
|-------4h5---|------------|--2-----4h5---|--6---(6)--------|
|--2----------|--6----3----|--------------|----------6-6----|
|-------------|------------|--------------|-----------------|
|-------------|------------|--------------|-----------------|


  Am            Fm           Am            C#m
  Gtr IV
   H.            H.           Q.    E.E.    H.
|-^0----------|-^1---------|-^5----^7h8--|-^4---------------||
|-^1----------|-^1---------|-^5----^5----|-^5---------------||
|-^2----------|-^1---------|-^5----------|-^6---------------||
|-^2----------|-^3---------|-^7----------|-^6---------------||
|-^0----------|------------|-------------|------------------||
|-------------|------------|-------------|------------------||
|
| Gtr I
|  Q.   E.E.     Q.   Q.      Q.    E.E.    Q   +S  S Q.
|-------------|------------|-------------|------------------||
|-------------|------------|-------------|------------------||
|-------4h5---|------------|--2-----4h5--|--6---(6)---------||
|--2----------|--6----3----|-------------|----------6-6-----||
|-------------|------------|-------------|------------------||
|-------------|------------|-------------|------------------||


   4th Verse
    Am                      Fm
    Gtrs V, VI
    E  S S S S E S S  S S   E  S S S S E  S S S S
    |  | | | | | | |  | |   |  | | | | |  | | | |
    /  / / / / / / /  / /   /  / / / / /  / / / /

    Gtr II
    Q.         E.  E.       Q.         Q.
||------------------------|-----------------------|
||o-----------------------|-----------------------|
||-------------4h==5------|-----------------------|
||--2---------------------|-6----------3----------|
||o-----------------------|-----------------------|
||------------------------|-----------------------|


  AmV                     C#m
  E  S S S S E S S  S S    E S S  S  S E  S S S S
  |  | | | | | | |  | |    | | |  |  | |  | | | |
  /  / / / / / / /  / /    / / /  /  / /  / / / /

  Q.         E.  E.        Q     +S  S Q.          4x
|-----------------------|--------------------------||
|-----------------------|-------------------------o||
|-2----------4h==5------|-/6-----(6)S1-1-----------||
|-----------------------|--------------------------||
|-----------------------|-------------------------o||
|-----------------------|--------------------------||


 3rd Bridge & Outro
  Gm         Gm/C# Gm/C    N.C.
  Gtrs V, VI
  E  S S S S S S S S S S    E  S S S S S S S S S S
|------------------------|-------------------------|
|-3--3-3-----------------|-------------------------|
|-3--3-3---3-----3-----3-|-------------------------|
|-5--5-5-5-----5-----5---|-------------------------|
|-5--5-5-----4-----3-----|--1----------------------|
|-3--3-3-----------------|-----3-3-x-x-1h3-3-3-x-x-|
|
| Gtr II
|                           >
| H.                       +H.
|------------------------|-------------------------|
|------------------------|-------------------------|
|-0----------------------|-(0)---------------------|
|------------------------|-------------------------|
|------------------------|-------------------------|
|------------------------|-------------------------|


                           1.,2.,3.,4.,5.,6.         7.
    Gm        Gm/C# Gm/C    N.C.
    E S S S S S S S S S S   E S S S S S S S S S S     E S S S S S S S S E
||------------------------|------------------------||----------------------*|
||o-3-3-3-----------------|-----------------------o||----------------------*|
||--3-3-3---3-----3-----3-|------------------------||----------------------*|
||--5-5-5-5-----5-----5---|------------------------||----------------------*|
||o-5-5-5-----4-----3-----|-1---------------------o||-1--------------------*|
||--3-3-3-----------------|---3-3-x-x-1h3-3-3-x-x--||---3-3-x-x-1h3-3-3----*|

Performance Notes
-----------------
For the sake of playback the legato slides in bars 110, 114 & 118 have been written as shift slides

Duration Legend
---------------
W - whole; H - half; Q - quarter; E - 8th; S - 16th; T - 32nd; X - 64th; a - acciaccatura
+ - note tied to previous; . - note dotted; .. - note double dotted
Uncapitalized letters represent notes that are staccato (1/2 duration)
Irregular groupings are notated above the duration line
Duration letters will always appear directly above the note/fret number it represents the
duration for.  Duration letters with no fret number below them represent rests.  Multi-
bar rests are notated in the form Wxn, where n is the number of bars to rest for.  Low
melody durations appear below the staff

Tablature Legend
----------------
 h   - hammer-on
 p   - pull-off
 b   - bend
 pb  - pre-bend
 r   - bend release (if no number after the r, then release immediately)
 /\  - slide into or out of (from/to "nowhere")
 s   - legato slide
 S   - shift slide
  - natural harmonic
[n]  - artificial harmonic
n(n) - tapped harmonic
 ~   - vibrato
 tr  - trill
 T   - tap
 TP  - trem. picking
 PM  - palm muting
\n/  - tremolo bar dip; n = amount to dip
 \n  - tremolo bar down
 n/  - tremolo bar up
/n\  - tremolo bar inverted dip
 =   - hold bend; also acts as connecting device for hammers/pulls
 <>  - volume swell (louder/softer)
 x   - on rhythm slash represents muted slash
 o   - on rhythm slash represents single note slash

Misc Legend
-----------
 |  - bar
||  - double bar
||o - repeat start
o|| - repeat end
*|  - double bar (ending)
 :  - bar (freetime)
 $  - Segno
 &  - Coda
Tempo markers -  = BPM(8/16=s8/s16), where s8 = swing 8ths, s16 = swing 16ths
Tap to rate this tab
# A B C D E F G H I J K L M N O P Q R S T U V W X Y Z