Song name
# A B C D E F G H I J K L M N O P Q R S T U V W X Y Z

Opeth - Still Day Beneath The Sun tab

With a capo, all the "3"s are actually played as open notes, so it is not as
difficult to play as it may seem by looking at the tab.  If you have trouble, feel
free to email me at the above address.

Listen to the song for timing.



Intro/Verse/Outro Riff
|-----------------------------------------------|
|-------------------------------3----6p3--------|
|------7----------7-------7---7-----------------|
|----5---5------5-------6---6-----6-------------|
|--5----------6-------3-------------------------|
|-----------------------------------------------|




Riff 2
|------------3------------3----|
|------------------------------|
|--------3------3-------3------|
|-----7----7------7---7--------|
|--7----------------6----------|
|------------------------------|




Transition Riff  
|--------------------------------------------------|
|--7----------6---------6--------------------------|
|------3---------3--------3------5-----7----3---5--|
|--------3---------3--------3------3---------------|
|--6--------------------5-----------------------3--|
|--------------------------------4-----6----3------|

|--------8--------6---------------------------|
|-----------3--------3-----8---6---3----------|
|-----/8------8--------3-----3---3---3--------|
|--------------------------8---7---3----------|
|---------------------------------------------|
|---------------------------------------------|




Riff 4  
|----------------------------------------------------3-------|
|-3h4---------------------3---------3-------------10---10----|
|-----3-----------8------------------------------3--------3--|
|-3h5-----------8-------7---7-----7-----------/10------------|
|-------3-----6-------8--------------------------------------|
|-------------------------------3-----3----------------------|


Transition to chorus
|---------------------------------------------------------------------------|
|-3h4--------------------3--------11-------10--------8------6------4----3---|
|-----3----------8-------------------3--------3--------3------3------3----3-|
|-3h5----------8-------7----------12---12--10---10---8---8--7---7--5----3---|
|-------3----6-------8-------------------------------------------------------
|---------------------------3------------------------------------------------


Chorus Riff
|----------3----------------3----------------3----------------------------|
|------3-----3----------3-----3----------3-----3--------------3-----------|
|----3---3-----3------3---3-----3------3---3-----3--------3-----3---------|
|--5-------------5--4-------------4--3-------------3----5---5-----5-------|
|-----------------------------------------------------7-------------7-----|
|-------------------------------------------------------------------------|

|-------------------------------------------------------------------------|
|----------3---------------------------------------------------3----------|
|------3-----3----------3--------3------------3--------5---------5--------|
|----5---5-----5------7--------7---7------3-----3--------3---------3------|
|--6-------------6--5-----5--3----------5---5-----5--------3---------3----|
|-------------------------------------6-------------6--4-----4------------|
Tap to rate this tab
# A B C D E F G H I J K L M N O P Q R S T U V W X Y Z