Song name
# A B C D E F G H I J K L M N O P Q R S T U V W X Y Z

Opeth - Masters Apprentice tab

Opeth
Master's Apprentice
Diliverance
Standard Tuning

e--------------------------------------------------|
b--------------------------------------------------|
g--------------------------------------------------|
d--3----2--2-2-2-2--3--2----6--7-------------------|
a--3----2--2-2-2-2--3--2----6--7-------------------|
e--1----0--0-0-0-0--1--0----4--5-------------------|

e--------------------------------------------------|
b--------------------------------------------------|
g--------------------------------------------------|
d--3----2--2-2-2-2--3--2----6--7---10--------------|
a--3----2--2-2-2-2--3--2----6--7---10--------------|
e--1----0--0-0-0-0--1--0----4--5---8---------------|

Listen to the song to figure out the rythem and # of repeats

I'll have more soon  Enjoy!
Tap to rate this tab
 
# A B C D E F G H I J K L M N O P Q R S T U V W X Y Z