Song name
# A B C D E F G H I J K L M N O P Q R S T U V W X Y Z

Opeth - Serenity Painted Death tab

-------------------------------------------------------------------------------
			     Serenity Painted Death Solo- Opeth (6:12)
-------------------------------------------------------------------------------
Tabbed by:crystalskull50
Email:

Tuning:standard

e|--------------------------------------------------------------------------|
B|---------13-12--12-13-13/15--13-12----------------------------------------|
G|-----------------------------------12-10----------------------------------|
D|-----------------------------------------10-----12-10h12-12+--------------|
A|15p14-12------------------------------------10----------------------------|
E|--------------------------------------------------------------------------|

e|--------------------------------------------------------------------------|
B|---10-11-13-11-10---------------15p14----------------------14-15p14----14-|
G|--x---------------12-----------------16------------------16---------16----|
D|-x-------------------12\10-8-7---------16--------------16-----------------|
A|x----------------------------------------17-16-14-16-17-------------------|
E|--------------------------------------------------------------------------|

e|------------14-15-17-18-17-15--------------13-10--------------------------|
B|---14-15-17-------------------15-13-11-13b----13brp11---------------------|
G|16----------------------------------------------------12--12p10-----------|
D|----------------------------------------------------------------12--------|
A|-------------------------------------------------------------------13-----|
E|--------------------------------------------------------------------------|

e|--------------------------------------------------------------------------|
B|------------------------------------10h11-----12---10---7---7h8-8-8\7-----|
G|------------------------------10----------12---------------9----------5---|
D|------------------------10/12----12--------------9----9-------------------|
A|12h13p12-10h12h13-10h12---------------------------------------------------|
E|--------------------------------------------------------------------------|

e|---------------------------------------------------------------------------|
B|----------16p15----15--------------------------------17-19-20-29-17--------|
G|----------------17----17p15h17p15\14h15p14----------x----------------------|
D|-------------------------------------------17-12---x-----------------------|
A|13-12---------------------------------------------x------------------------|
E|------15-------------------------------------------------------------------|

e|---------------------------------------------------------------------------|
B|22-20-19-20-17--/20-18---------------------------18------------------------|
G|-----------------------19----15-17brp15----15-17b---17brp15----15----------|
D|---------------------------17-----------17------------------17-------------|
A|---------------------------------------------------------------------------|
E|---------------------------------------------------------------------------|

e|----15----------------18---------------------------------------------------|
B|-----------18--------------------------------------------------------------|
G|17b----17b----17br-15------------------------------------------------------|
D|---------------------------------------------------------------------------|
A|---------------------------------------------------------------------------|
E|---------------------------------------------------------------------------|

| /  slide up
| \  slide down
| h  hammer-on
| p  pull-off
| ~  vibrato
| +  harmonic
| x  Mute note
===============================================================================
Tap to rate this tab
# A B C D E F G H I J K L M N O P Q R S T U V W X Y Z