Guitaretab - guitar tabs
Song name
# A B C D E F G H I J K L M N O P Q R S T U V W X Y Z

Opeth - Moonlapse Vertigo tab

MOONLAPSE VERTIGO
As recorded by Opeth
From the 1999 Album STILL LIFE
Words and Music by Mikael Akerfeldt


          Am                    F                   Dm6                  Dm
      x x 7 5 5 5          x x 3 2 1 1          x x 0 7 6 7          x x 0 7 6 5

           G
      x x 5 4 3 3

Gtr I (E A D G B E) - 'L1'
Gtr II (E A D G B E) - 'R1'
Gtr III (E A D G B E) - 'Acoustic Left'
Gtr IV (E A D G B E) - 'Acoustic Right'
Gtr V (E A D G B E) - 'L2'
Gtr VI (E A D G B E) - 'R2'

 Intro
  Q.=60
  G5    E              Em   Esus2   Em  Esus4     B5GmajA5
 1/4   6/8
  Gtrs I, II
  E E   S S S S  S   S E  S S S S    E  S S S S E E E
|-----|---------------------------|-------------------|
|-----|---------------------------|-------------------|
|-----|-7s9-9-9-------------------|-------------------|
|-----|----------------5--5-4-----|--5--7-7-7-7---4-4-|
|---5-|-5s7-7-7--------7--7-7-----|--7--7-7-7-7---2-2-|
|-3---|----------0---0--------0-0-|-------------0---3-|
|
| Gtr V
|                      ~~~~~~~~~~~~~~~~~~~~~~~~~~~~~~~~
| Q     Q       +E     Q.           +H.
|-----|---------------------------|-------------------|
|-----|---------------------------|-------------------|
|-----|-9-------(9)\---4----------|-(4)---------------|
|-----|---------------------------|-------------------|
|-----|---------------------------|-------------------|
|-----|---------------------------|-------------------|


             Esus4         Cm               G5
  E  S S S S S S S S S S     S S S S S S  E E E
|------------------------|------------------------|
|------------------------|------------------------|
|------------------------|---------0--------------|
|-2--2-2-2-2-0-2-2-2-2-2-|-------1---1---/5-------|
|-0--0-0-0-0-0h2-2-2-2-2-|---0h3-------3------5---|
|------------------------|------------------3-----|
|
|~~~~~~~~~~~~~~~~~~~~~~~~~~~~~~~
| Q.         Q.              H.
|------------------------|------------------------|
|------------------------|------------------------|
|-2----------5-----------|-/12--------------------|
|------------------------|------------------------|
|------------------------|------------------------|
|------------------------|------------------------|


  E                 Em   Esus2   Em  Esus4       B5GmajA5
    S  S S S  S   S E  S S S S    E  S S S S  E  E E
|------------------------------|---------------------|
|------------------------------|---------------------|
|---7s=9-9-9-------------------|---------------------|
|-------------------5--5-4-----|--5--7-7-7-7-----4-4-|
|---5s=7-7-7--------7--7-7-----|--7--7-7-7-7-----2-2-|
|-------------0---0--------0-0-|--------------0----3-|
|
|                   ~~~~~~~~~~~~~~~~~~~~~~~~~~~~~
|  +E    E   +E     Q.           +Q.         +E  E E
|------------------------------|---------------------|
|------------------------------|---------------------|
|-(12)---9---(9)\---4----------|-(4)---------(4)-4-5-|
|------------------------------|---------------------|
|------------------------------|---------------------|
|------------------------------|---------------------|


             Esus4         Cm               G5
  E  S S S S S S S S S S     S S S S S S  E E E
|------------------------|------------------------|
|------------------------|------------------------|
|------------------------|---------0--------------|
|-2--2-2-2-2-0-2-2-2-2-2-|-------1---1---/5-------|
|-0--0-0-0-0-0h2-2-2-2-2-|---0h3-------3------5---|
|------------------------|------------------3-----|
|
| ~~~~~~~~~~~~~~~~~~~~~~~~~~~~~~
| Q.         Q.              H.
|------------------------|------------------------|
|------------------------|------------------------|
|-2----------5-----------|-/12--------------------|
|------------------------|------------------------|
|------------------------|------------------------|
|------------------------|------------------------|


  Em             Em   Esus2   Em  Esus4          B5Gmaj7
  S S S S  S   S E  S S S S    E  S S   S   S E  E E
|---------------------------|------------------------|
|---------------------------|------------------------|
|-7s9-9-9-------------------|------------------------|
|----------------5--5-4-----|--5--7-7---7---7----4-4-|
|-5s7-7-7--------7--7-7-----|--7--7-7---7---7----2-2-|
|----------0---0--------0-0-|-----------------0----3-|
|
|                ~~~~~~~~~~~~~~~~~~~~~~~~~~~~~~~~~~~~~
| Q       +E     Q.           +H.
|---------------------------|------------------------|
|---------------------------|------------------------|
|-9-------(9)\---4----------|-(4)--------------------|
|---------------------------|------------------------|
|---------------------------|------------------------|
|---------------------------|------------------------|
|
| Gtr VI
|                                             ~~~~~~~~
| H.                           Q       +E     Q.
|---------------------------|------------------------|
|---------------------------|-12------(12)\---7------|
|---------------------------|------------------------|
|---------------------------|------------------------|
|---------------------------|------------------------|
|---------------------------|------------------------|


              Esus4         Cm                 G5
   E  S S S S S S S S S S     S S S S S S   E  E E
|-------------------------|--------------------------|
|-------------------------|--------------------------|
|-------------------------|---------0----------------|
|--2--2-2-2-2-0-2-2-2-2-2-|-------1---1----/5--------|
|--0--0-0-0-0-0h2-2-2-2-2-|---0h3-------3--------5---|
|-------------------------|--------------------3-----|
|
|~~~~~~~~~~~~~~~~~~~~~~~~~~~~~~~~
|  Q.         Q.              H.
|-------------------------|--------------------------|
|-------------------------|--------------------------|
|--2----------5-----------|-/12----------------------|
|-------------------------|--------------------------|
|-------------------------|--------------------------|
|-------------------------|--------------------------|
|
|~~~~~~~~~~~~~~~~~~~~~~~~~~~~~~~~~~~~~~~~~~~~~~
| +H.                         Q.            Q.
|-------------------------|--------------------------|
|-(7)---------------------|-/15-----------(15)-------|
|-------------------------|--------------------------|
|-------------------------|----------------14--------|
|-------------------------|--------------------------|
|-------------------------|--------------------------|


  E                   Em   Esus2   Em  Esus4          B5GmajA5
    S  S  S S   S   S E  S S S S    E  S S   S   S E  E E
|--------------------------------|------------------------|
|--------------------------------|------------------------|
|---7s=9--9-9--------------------|------------------------|
|---------------------5--5-4-----|--5--7-7---7---7----4-4-|
|---5s=7--7-7---------7--7-7-----|--7--7-7---7---7----2-2-|
|---------------0---0--------0-0-|-----------------0----3-|
|
|                     ~~~~~~~~~~~~~~~~~~~~~~~~~~~~~~~~~~~~~
|  +E     E    +E     Q.           +H.
|--------------------------------|------------------------|
|--------------------------------|------------------------|
|-(12)----9----(9)\---4----------|-(4)--------------------|
|--------------------------------|------------------------|
|--------------------------------|------------------------|
|--------------------------------|------------------------|
|
|                                                  ~~~~~~~~
|  +E     E    +E     Q.            Q       +E     Q.
|--------------------------------|------------------------|
|--------10---(10)\---7----------|-12------(12)\---7------|
|--------------------------------|------------------------|
|-(14)---------------------------|------------------------|
|--------------------------------|------------------------|
|--------------------------------|------------------------|


              Esus4         Cm                 G5
   E  S S S S S S S S S S     S S S S S S   E  E E
|-------------------------|--------------------------|
|-------------------------|--------------------------|
|-------------------------|---------0----------------|
|--2--2-2-2-2-0-2-2-2-2-2-|-------1---1----/5--------|
|--0--0-0-0-0-0h2-2-2-2-2-|---0h3-------3--------5---|
|-------------------------|--------------------3-----|
|
|~~~~~~~~~~~~~~~~~~~~~~~~~~~~~~~~
|  Q.         Q.              H.
|-------------------------|--------------------------|
|-------------------------|--------------------------|
|--2----------5-----------|-/12----------------------|
|-------------------------|--------------------------|
|-------------------------|--------------------------|
|-------------------------|--------------------------|
|
|~~~~~~~~~~~~~~~~~~~~~~~~~~~~~~~~~~~~~~~~~~~~~~
| +H.                         Q.            Q.
|-------------------------|--------------------------|
|-(7)---------------------|-/15-----------(15)-------|
|-------------------------|--------------------------|
|-------------------------|----------------14--------|
|-------------------------|--------------------------|
|-------------------------|--------------------------|


  E               Em   Esus2   Em  Esus4           B5GmajA5
   S S S S  S   S E  S S S S    E  S S   S   S  E  E E
|----------------------------|-------------------------|
|----------------------------|-------------------------|
|--7s9-9-9-------------------|-------------------------|
|-----------------5--5-4-----|--5--7-7---7---7-----4-4-|
|--5s7-7-7--------7--7-7-----|--7--7-7---7---7-----2-2-|
|-----------0---0--------0-0-|------------------0----3-|
|
|                 ~~~~~~~~~~~~~~~~~~~~~~~~~~~~~~~~~
|  Q       +E     Q.           +Q.             +E  E E
|----------------------------|-------------------------|
|----------------------------|-------------------------|
|--9-------(9)\---4----------|-(4)-------------(4)-4-5-|
|----------------------------|-------------------------|
|----------------------------|-------------------------|
|----------------------------|-------------------------|
|
|  ~~~                                          ~~~~~~~~
|  H.                           Q       +E      Q.
|----------------------------|-------------------------|
|-15-------------------------|-12------(12)\----7------|
|----------------------------|-------------------------|
|----------------------------|-------------------------|
|----------------------------|-------------------------|
|----------------------------|-------------------------|


              Esus4           Cm                 G5
   E  S S S S S S S S  S  S     S S S S S S   E  E E
|---------------------------|--------------------------|
|---------------------------|--------------------------|
|---------------------------|---------0----------------|
|--2--2-2-2-2-0-2-2-2--2--2-|-------1---1----/5--------|
|--0--0-0-0-0-0h2-2-2--2--2-|---0h3-------3--------5---|
|---------------------------|--------------------3-----|
|
|  ~~~~~~~~~~~~~~               ~~~~
|  Q.         Q       +E        H.
|---------------------------|--------------------------|
|---------------------------|--------------------------|
|--2----------5-------(5)S==|==12----------------------|
|---------------------------|--------------------------|
|---------------------------|--------------------------|
|---------------------------|--------------------------|
|
|~~~~~~~~~~~~~~~~~~~~~~~~~~~~~~~~~~~~~~~~~~~~~~~~
| +H.                           Q.            Q.
|---------------------------|--------------------------|
|-(7)-----------------------|-/15-----------(15)-------|
|---------------------------|--------------------------|
|---------------------------|----------------14--------|
|---------------------------|--------------------------|
|---------------------------|--------------------------|


  E                   Em   Esus2   Em  Esus4          B5GmajA5
    S  S  S S   S   S E  S S S S    E  S S   S   S E  E E
|--------------------------------|------------------------|
|--------------------------------|------------------------|
|---7s=9--9-9--------------------|------------------------|
|---------------------5--5-4-----|--5--7-7---7---7----4-4-|
|---5s=7--7-7---------7--7-7-----|--7--7-7---7---7----2-2-|
|---------------0---0--------0-0-|-----------------0----3-|
|
|                     ~~~~~~~~~~~~~~~~~~~~~~~~~~~~~~~~~~~~~
|  +E     E    +E     Q.           +H.
|--------------------------------|------------------------|
|--------------------------------|------------------------|
|-(12)----9----(9)\---4----------|-(4)--------------------|
|--------------------------------|------------------------|
|--------------------------------|------------------------|
|--------------------------------|------------------------|
|
|                                                  ~~~~~~~~
|  +E     E    +E     Q.            Q       +E     Q.
|--------------------------------|------------------------|
|--------10---(10)\---7----------|-12------(12)\---7------|
|--------------------------------|------------------------|
|-(14)---------------------------|------------------------|
|--------------------------------|------------------------|
|--------------------------------|------------------------|


              E5            Cm            Em
   E  S S S S S S S S S S     S S S S S S   E  E E
|-------------------------|--------------------------|
|-------------------------|--------------------------|
|-------------------------|---------0----------------|
|--2--2-2-2-2-0-2-2-2-2-2-|-------1---1----/5--------|
|--0--0-0-0-0-0h2-2-2-2-2-|---0h3-------3------7-----|
|-------------------------|----------------------0---|
|
|~~~~~~~~~~~~~~~~~~~~~~~~~~~~~~~~~~~~~~~~~~~~~~
|  Q.         Q.              Q.            Q.
|-------------------------|--------------------------|
|-------------------------|--------------------------|
|--2----------5-----------|-/12-------------4--------|
|-------------------------|--------------------------|
|-------------------------|--------------------------|
|-------------------------|--------------------------|
|
|~~~~~~~~~~~~~~~~~~~~~~~~~~~~~~~~~~~~~~~~~~~~~~
| +H.                         Q.            Q.
|-------------------------|--------------------------|
|-(7)---------------------|-/15-----------(15)-------|
|-------------------------|--------------------------|
|-------------------------|----------------14--------|
|-------------------------|--------------------------|
|-------------------------|--------------------------|


    Am
   6/8
    Gtrs I, II
      E   S  S   S  S  E   S  S   S  S
||----8---8--8---8--8--8---8--8---8--8-|
||o--10--10-10--10-10-10--10-10--10-10-|
||----9---9--9---9--9--9---9--9---9--9-|
||---10--10-10--10-10-10--10-10--10-10-|
||o---0---0--0---0--0--0---0--0---0--0-|
||-------------------------------------|
|
|   Gtr V
|     E.     E.        E.     E.
||-------------------------------------|
||o------------------------------------|
||-------------------------------------|
||--/10------9---------7---------------|
||o---------------------------7--------|
||-------------------------------------|
|
|   Gtr VI
|     E.     E.        E.     E.
||-------------------------------------|
||o-/13-----12--------10---------------|
||----------------------------9--------|
||-------------------------------------|
||o------------------------------------|
||-------------------------------------|


                                      Em/G
   E   S  S   S  S  E   S  S   S  S   E  S  S  S S  E  S  S  S S
|--8---8--8---8--8--8---8--8---8--8-|-7--7--7--7-7--7--7--7--7-7--|
|-10--10-10--10-10-10--10-10--10-10-|-0--0--0--0-0--0--0--0--0-0--|
|--9---9--9---9--9--9---9--9---9--9-|-9--9--9--9-9--9--9--9--9-9--|
|-10--10-10--10-10-10--10-10--10-10-|-9--9--9--9-9--9--9--9--9-9--|
|--0---0--0---0--0--0---0--0---0--0-|-----------------------------|
|-----------------------------------|-----------------------------|
|
|  E.     E.        E.     E.         E.    E.      E.   +S  S S
|-----------------------------------|-----------------------------|
|-----------------------------------|-----------------------------|
|-----------------------------------|-----------------------------|
|--9------7---------5---------------|-5-----7---------------------|
|--------------------------7--------|--------------/5----(5)-3p2--|
|-----------------------------------|-----------------------------|
|
|  E.     E.        E.     E.         E.    E.      E.   +S  S S
|-----------------------------------|-----------------------------|
|-12-----10---------8---------------|-8----10---------------------|
|--------------------------9--------|--------------/7----(7)-5p4--|
|-----------------------------------|-----------------------------|
|-----------------------------------|-----------------------------|
|-----------------------------------|-----------------------------|


  E     S  S  S S  E  S S S S
|-7-----7--7--7-7--7--7-7-7-7-|
|-0-----0--0--0-0--0--0-0-0-0-|
|-9-----9--9--9-9--9--9-9-9-9-|
|-9-----9--9--9-9--9--9-9-9-9-|
|-----------------------------|
|-----------------------------|
|
| S S a S +E.     +Q.
|-----------------------------|
|-----------------------------|
|-----------------------------|
|-----------------------------|
|-3p2-3s5-(5)-----(5)---------|
|-----------------------------|
|
| S S a S +E.     +Q.
|-----------------------------|
|-----------------------------|
|-5p4-5s7-(7)-----(7)---------|
|-----------------------------|
|-----------------------------|
|-----------------------------|


  F                             D6/F
    E  S  S  S S  E  S S  S S    E  S  S  S S E  S S  S S
|---8--8--8--8-8--8--8-8--8-8-|--7--7--7--7-7-7--7-7--7-7--|
|---6--6--6--6-6--6--6-6--6-6-|--6--6--6--6-6-6--6-6--6-6--|
|---5--5--5--5-5--5--5-5--5-5-|--7--7--7--7-7-7--7-7--7-7--|
|---7--7--7--7-7--7--7-7--7-7-|--0--0--0--0-0-0--0-0--0-0--|
|-----------------------------|----------------------------|
|-----------------------------|----------------------------|
|
|   E.    E.      E.   E.        E.    E.     E.   E.
|-----------------------------|----------------------------|
|-----------------------------|----------------------------|
|-----------------------------|----------------------------|
|-/10-----9-------7-----------|--9-----7------5------------|
|----------------------7------|--------------------7-------|
|-----------------------------|----------------------------|
|
|   E.    E.      E.   E.        E.    E.     E.   E.
|-----------------------------|----------------------------|
|-/13----12------10-----------|-12----10------8------------|
|----------------------9------|--------------------9-------|
|-----------------------------|----------------------------|
|-----------------------------|----------------------------|
|-----------------------------|----------------------------|


  Dm                           F5             N.C.
  E  S  S  S S  E  S  S  S S    S  S  S S S S  S S S S S S
|-5--5--5--5-5--5--5--5--5-5-|------------------------------||
|-6--6--6--6-6--6--6--6--6-6-|-----------------------------o||
|-7--7--7--7-7--7--7--7--7-7-|------------------------------||
|-0--0--0--0-0--0--0--0--0-0-|--3-(3)-3-3-3-3----------5h7--||
|----------------------------|--3-(3)-3-3-3-3------5h7-----o||
|----------------------------|--0h=1--1-1-1-1--0h1----------||
|
| E.    E.      E.   +S  S S    Q         S S  Q       S S
|----------------------------|------------------------------||
|----------------------------|-----------------------------o||
|----------------------------|-/7---------5h7-/9-------7----||
|-5-----7--------------------|---------------------------7--||
|--------------/5----(5)-----|-----------------------------o||
|------------------------8p7-|------------------------------||
|
| E.    E.      E.   +S  S S    Q         S S  Q       S S
|----------------------------|------------------------------||
|-8----10--------------------|-----------------------------o||
|--------------/7----(7)-5p4-|-/7---------5h7-/9-------7----||
|----------------------------|---------------------------7--||
|----------------------------|-----------------------------o||
|----------------------------|------------------------------||


    Am
    Gtrs III, IV
      E   S  S   S  S  E   S  S   S  S
      |   |  |   |  |  |   |  |   |  |
      /   /  /   /  /  /   /  /   /  /

      E   S  S   S  S  E   S  S   S  S
||----8---8--8---8--8--8---8--8---8--8-|
||o--10--10-10--10-10-10--10-10--10-10-|
||----9---9--9---9--9--9---9--9---9--9-|
||---10--10-10--10-10-10--10-10--10-10-|
||o------------------------------------|
||-------------------------------------|
|
|     E.     E.        E.     E.
||-------------------------------------|
||o------------------------------------|
||-------------------------------------|
||--/10------9---------7---------------|
||o---------------------------7--------|
||-------------------------------------|
|
|     E.     E.        E.     E.
||-------------------------------------|
||o--13-----12--------10---------------|
||----------------------------9--------|
||-------------------------------------|
||o------------------------------------|
||-------------------------------------|


                                      G
   E   S  S   S  S  E   S  S   S  S   E  S  S  S S  E  S  S  S S
   |   |  |   |  |  |   |  |   |  |   |  |  |  | |  |  |  |  | |
   /   /  /   /  /  /   /  /   /  /   /  /  /  / /  /  /  /  / /

   E   S  S   S  S  E   S  S   S  S   E  S  S  S S  E  S  S  S S
|--8---8--8---8--8--8---8--8---8--8-|-7--7--7--7-7--7--7--7--7-7-|
|-10--10-10--10-10-10--10-10--10-10-|-0--0--0--0-0--0--0--0--0-0-|
|--9---9--9---9--9--9---9--9---9--9-|-9--9--9--9-9--9--9--9--9-9-|
|-10--10-10--10-10-10--10-10--10-10-|-9--9--9--9-9--9--9--9--9-9-|
|-----------------------------------|----------------------------|
|-----------------------------------|----------------------------|
|
|  E.     E.        E.     E.         E.    E.      E.   +S  S S
|-----------------------------------|----------------------------|
|-----------------------------------|----------------------------|
|-----------------------------------|----------------------------|
|--9------7---------5---------------|-5-----7--------------------|
|--------------------------7--------|--------------/5----(5)-3p2-|
|-----------------------------------|----------------------------|
|
|  E.     E.        E.     E.         E.    E.      E.   +S  S S
|-----------------------------------|----------------------------|
|-12-----10---------8---------------|-8----10--------------------|
|--------------------------9--------|---------------7----(7)-5p4-|
|-----------------------------------|----------------------------|
|-----------------------------------|----------------------------|
|-----------------------------------|----------------------------|


  E     S  S  S S  E  S S S S
  |     |  |  | |  |  | | | |
  /     /  /  / /  /  / / / /

  E     S  S  S S  E  S S S S
|-7-----7--7--7-7--7--7-7-7-7-|
|-0-----0--0--0-0--0--0-0-0-0-|
|-9-----9--9--9-9--9--9-9-9-9-|
|-9-----9--9--9-9--9--9-9-9-9-|
|-----------------------------|
|-----------------------------|
|
| S S a S +E.     +Q.
|-----------------------------|
|-----------------------------|
|-----------------------------|
|-----------------------------|
|-3p2-3s5-(5)-----(5)---------|
|-----------------------------|
|
| S S a S +E.     +Q.
|-----------------------------|
|-----------------------------|
|-5p4-5s7-(7)-----(7)---------|
|-----------------------------|
|-----------------------------|
|-----------------------------|


  F                             Dm6
    E  S  S  S S  E  S S  S S    E  S  S  S S E  S S  S S
    |  |  |  | |  |  | |  | |    |  |  |  | | |  | |  | |
    /  /  /  / /  /  / /  / /    /  /  /  / / /  / /  / /

    E  S  S  S S  E  S S  S S    E  S  S  S S E  S S  S S
|---8--8--8--8-8--8--8-8--8-8-|--7--7--7--7-7-7--7-7--7-7--|
|---6--6--6--6-6--6--6-6--6-6-|--6--6--6--6-6-6--6-6--6-6--|
|---5--5--5--5-5--5--5-5--5-5-|--7--7--7--7-7-7--7-7--7-7--|
|---7--7--7--7-7--7--7-7--7-7-|--0--0--0--0-0-0--0-0--0-0--|
|-----------------------------|----------------------------|
|-----------------------------|----------------------------|
|
|   E.    E.      E.   E.        E.    E.     E.   E.
|-----------------------------|----------------------------|
|-----------------------------|----------------------------|
|-----------------------------|----------------------------|
|-/10-----9-------7-----------|--9-----7------5------------|
|----------------------7------|--------------------7-------|
|-----------------------------|----------------------------|
|
|   E.    E.      E.   E.        E.    E.     E.   E.
|-----------------------------|----------------------------|
|-/13----12------10-----------|-12----10------8------------|
|----------------------9------|--------------------9-------|
|-----------------------------|----------------------------|
|-----------------------------|----------------------------|
|-----------------------------|----------------------------|


  Dm                           F            N.C.             Asus2
  E  S  S  S S  E  S  S  S S    W                            W
  |  |  |  | |  |  |  |  | |
  /  /  /  / /  /  /  /  / /

                               Gtrs I, II, III, IV
  E  S  S  S S  E  S  S  S S    S S S S S S  S S S S S S     H.
|-5--5--5--5-5--5--5--5--5-5-|----------------------------||-------|
|-6--6--6--6-6--6--6--6--6-6-|---------------------------o||-------|
|-7--7--7--7-7--7--7--7--7-7-|----------------------------||-------|
|-0--0--0--0-0--0--0--0--0-0-|--3-3-3-3-3-3----------5h7--||-7-----|
|----------------------------|--3-3-3-3-3-3------5h7-----o||-0-----|
|----------------------------|--0h1-1-1-1-1--0h1----------||-------|
|
|                                                            ~~
| E.    E.      E.   +S  S S    Q       S S  Q       S S     H.
|----------------------------|----------------------------||-------|
|----------------------------|---------------------------o||-------|
|----------------------------|-/7-------5h7-/9-------7----||-------|
|-5-----7--------------------|-------------------------7--||-9-----|
|--------------/5----(5)-----|---------------------------o||-------|
|------------------------8p7-|----------------------------||-------|
|
|                                                            ~~
| E.    E.      E.   +S  S S    Q       S S  Q       S S     H.
|----------------------------|----------------------------||-------|
|-8----10--------------------|---------------------------o||-------|
|--------------/7----(7)-5p4-|-/7-------5h7-/9-------7----||-------|
|----------------------------|-------------------------7--||-9-----|
|----------------------------|---------------------------o||-------|
|----------------------------|----------------------------||-------|


                      Q=85
                        Esus2   Gmaj7     Esus2 Gmaj7
 6/8                   4/4
  Gtrs I, II
              >
  +H.        +H.        +W
|----------|----------|-----------------------------------|
|----------|----------|-----------------------------------|
|----------|----------|-----------------------------------|
|-(7)------|-(7)------|-(7)-------------------------------|
|-(0)------|-(0)------|-(0)-------------------------------|
|----------|----------|-----------------------------------|
|
| Gtrs V, VI
|             >
|  ~~~~~~~~~~~~~~~~~~~~~~~~~
| +H.        +H.        +W
|----------|----------|-----------------------------------|
|----------|----------|-----------------------------------|
|----------|----------|-----------------------------------|
|-(9)------|-(9)------|-(9)-------------------------------|
|----------|----------|-----------------------------------|
|----------|----------|-----------------------------------|
|
| Gtr IV                                                  G
|  H.         H.         S  S S S S S S S S S S S S S S S
|----------|----------|-----------------------------------|
|----------|----------|-----------------------------------|
|----------|----------|---------------0---------------0---|
|----------|----------|-------4-----4---4-----4-----4---4-|
|----------|----------|-----2-----2---------2-----2-------|
|----------|----------|--0------3---------0-----3---------|


  Esus2 Gmaj7     Esus2 Gmaj7
  W
|----------------------------------|
|----------------------------------|
|----------------------------------|
|----------------------------------|
|----------------------------------|
|----------------------------------|
|
| W
|----------------------------------|
|----------------------------------|
|----------------------------------|
|----------------------------------|
|----------------------------------|
|----------------------------------|
|
|trs III, IV
| S S S S S S S S S S S S S S S S
|----------------------------------|
|----------------------------------|
|-------------0---------------0----|
|-----4-----4---4-----4-----4---4--|
|---2-----2---------2-----2--------|
|-0-----3---------0-----3----------|


   Verse
    Esus2 Gmaj7     Esus2 Gmaj7       Esus2 Gmaj7   Bbmaj7
    Gtrs III, IV
    S S S S S S S S S S S S S S S S   S S S S S S S S +S  S S S S S S S
||----------------------------------|-------------------------------------||
||o---------------------------------|---------------------------3--------o||
||--------------0---------------0---|-------------0---------2s3---0-2h3---||
||------4-----4---4-----4-----4---4-|-----4-----4---------0---------------||
||o---2-----2---------2-----2-------|---2-----2-----1-(1)----------------o||
||--0-----3---------0-----3---------|-0-----3-----------------------------||


    Esus2  Gmaj7       Esus2  Gmaj7
    S  S S S  S  S S S S  S S S  S  S S S
||----------------------------------------|
||o---------------------------------------|
||-----------------0------------------0---|
||-------4-------4---4------4-------4---4-|
||o----2------2-----------2------2--------|
||--0------3-----------0------3-----------|
|
|   Gtr VI
|   E.     S +Q        E.     S +Q
||----------------------------------------|
||o---------------------------------------|
||--4------2-(2)-------4------------------|
||----------------------------4-(4)-------|
||o---------------------------------------|
||----------------------------------------|


  Esus2  Gmaj7     Bbmaj7
  S  S S S  S  S S S +S  S S S S S S  S
|-------------------------------------------||
|------------------------------3-----------o||
|----------------0---------2s3---0-2h=3-----||
|------4-------4---------0------------------||
|----2------2------1-(1)-------------------o||
|-0------3----------------------------------||
|
| E.     S +E.     S +Q.           S +S
|-------------------------------------------||
|------------------------------------------o||
|-4------2-(2)-----0-(0)--------------------||
|----------------------------------2-(2)/---||
|------------------------------------------o||
|-------------------------------------------||


  Esus2  Gmaj7       Esus2  Gmaj7
  S  S S S  S  S S S S  S S S  S  S S S
|---------------------------------------|
|---------------------------------------|
|----------------0------------------0---|
|------4-------4---4------4-------4---4-|
|----2------2-----------2------2--------|
|-0------3-----------0------3-----------|
|
| Gtr V
| E.     S +Q        E.     S +Q
|---------------------------------------|
|---------------------------------------|
|-4------2-(2)-------4------------------|
|---------------------------4-(4)-------|
|---------------------------------------|
|---------------------------------------|


  Esus2  Gmaj7     Bbmaj7
  S  S S S  S  S S S +S  S S S S S S  S
|-----------------------------------------|
|------------------------------3----------|
|----------------0---------2s3---0-2h=3---|
|------4-------4---------0----------------|
|----2------2------1-(1)------------------|
|-0------3--------------------------------|
|
| E.     S +E.     S +Q.           S +S
|-----------------------------------------|
|-----------------------------------------|
|-4------2-(2)-----0-(0)------------------|
|----------------------------------2-(2)/-|
|-----------------------------------------|
|-----------------------------------------|


  Esus2  Gmaj7       Esus2  Gmaj7         Esus2  Gmaj7     Bbmaj7
  S  S S S  S  S S S S  S S S  S  S S S   S  S S S  S  S S S +S  S S S S S S S
|---------------------------------------|--------------------------------------|
|---------------------------------------|------------------------------3-------|
|----------------0------------------0---|----------------0---------2s3---0-2h3-|
|------4-------4---4------4-------4---4-|------4-------4---------0-------------|
|----2------2-----------2------2--------|----2------2------1-(1)---------------|
|-0------3-----------0------3-----------|-0------3-----------------------------|
|
| E.     S +Q        E.     S +Q          E.     S +E.     S +H
|---------------------------------------|--------------------------------------|
|---------------------------------------|--------------------------------------|
|-4------2-(2)-------4------------------|-4------2-(2)-----0-(0)---------------|
|---------------------------4-(4)-------|--------------------------------------|
|---------------------------------------|--------------------------------------|
|---------------------------------------|--------------------------------------|
|
| Gtrs I, II
|                                                                PM----------|
| W                                       Q         E.     S +S  S S S S S S S
|---------------------------------------|--------------------------------------|
|---------------------------------------|--------------------------------------|
|---------------------------------------|------------------2-(2)---------------|
|---------------------------------------|------------------0-(0)-0-0-0-0-0-0-0-|
|---------------------------------------|------------------1-(1)-1-1-1-1-1-1-1-|
|---------------------------------------|--------------------------------------|


   Heavy Verse
    Q=85
    $
    Ab5                  Am       Cm      Bm      Abm   Bm
   4/4
    Gtrs I, II
    E. S S S S S +S  S E Q     E  S S +S  S E +S  S E E E
||--------------------------|-----------------------------|
||o-------------------------|-----------------------------|
||-----------------------5--|-----------------------------|
||-----------5-----------7--|-----------------------------|
||o-0--0-5h6---5-(5)s3-0----|--3s=6-6-(6)-5-5-(5)S2-2-2S5-|
||--------------------------|--5s=8-8-(8)-7-7-(7)S4-4-4S7-|
|
|   Gtrs V, VI
|   W                         +W
||--8-----------------------|-(8)-------------------------|
||o-5-----------------------|-(5)-------------------------|
||--------------------------|-----------------------------|
||--------------------------|-----------------------------|
||o-------------------------|-----------------------------|
||--------------------------|-----------------------------|


                                1.,2.,3.
  Ab5                     AmAb  C   N.C.    Cm
                        |-3-|
   E. S S S S S +S  S E E E E    E. S +S  S S S S S S S S S S S
|-----------------------------|-----------------------------------||
|-----------------------------|----------------------------------o||
|-------------------------5-5-|--5------------------8---7---5h7---||
|-----------5-------------7-6-|--5----------------7---7---7-------||
|--0--0-5h6---5-(5)s3-0-0-----|-----7-(7)-0-3-5-6----------------o||
|-----------------------------|-----------------------------------||
|
| +W                             W
|-(8)-------------------------|-10--------------------------------||
|-(5)-------------------------|--8-------------------------------o||
|-----------------------------|-----------------------------------||
|-----------------------------|-----------------------------------||
|-----------------------------|----------------------------------o||
|-----------------------------|-----------------------------------||

[ Tab from: http://www.guitaretab.com/o/opeth/55675.html ]
  4.
                     To Coda
  C   N.C.            B7+9      Esus2  Gmaj7       Esus2  Gmaj7
                                ~~~~~~~~~~~~~~~~~~~~~~~~~~~~~~~~~~~~~~~
   E. S +S  S S S +E. S +Q      W
|----------------------------||-7-------------------------------------|
|----------------------------||-5-------------------------------------|
|--5------------------7-(7)--||---------------------------------------|
|--5------------------7-(7)--||---------------------------------------|
|-----7-(7)-6-5-------6-(6)--||---------------------------------------|
|---------------8-(8)-7-(7)--||-0-------------------------------------|
|
|  H               H            E.     S +Q        E.     S +Q
|-10--------------15---------||---------------------------------------|
|--8---------------8---------||---------------------------------------|
|----------------------------||-4------2-(2)-------4------------------|
|----------------------------||---------------------------4-(4)-------|
|----------------------------||---------------------------------------|
|----------------------------||---------------------------------------|
|
| Gtrs III, IV
|  W                            S  S S S  S  S S S S  S S S  S  S S S
|----------------------------||---------------------------------------|
|----------------------------||---------------------------------------|
|----------------------------||----------------0------------------0---|
|----------------------------||------4-------4---4------4-------4---4-|
|----------------------------||----2------2-----------2------2--------|
|----------------------------||-0------3-----------0------3-----------|


  Esus2   Gmaj7     Bbmaj7
 ~~~~~
  +W
|-(7)----------------------------------------|
|-(5)----------------------------------------|
|--------------------------------------------|
|--------------------------------------------|
|--------------------------------------------|
|-(0)----------------------------------------|
|
|  E.     S +E.     S +Q.           S +S
|--------------------------------------------|
|--------------------------------------------|
|--4------2-(2)-----0-(0)--------------------|
|-----------------------------------2-(2)/---|
|--------------------------------------------|
|--------------------------------------------|
|
|  S  S S S  S  S S S +S  S S S S S S  S
|--------------------------------------------|
|-------------------------------3------------|
|-----------------0---------2s3---0-2h=3-----|
|-------4-------4---------0------------------|
|-----2------2------1-(1)--------------------|
|--0------3----------------------------------|


 Verse
  Esus2   Gmaj7       Esus2  Gmaj7
   ~~~~~~~~~~~~~~~~~~~~~~~~~~~~~~~~~~~~~~~
  +W
|----------------------------------------|
|----------------------------------------|
|----------------------------------------|
|----------------------------------------|
|----------------------------------------|
|-(0)------------------------------------|
|
|  E.     S +Q        E.     S +Q
|----------------------------------------|
|----------------------------------------|
|--4------2-(2)-------4------------------|
|----------------------------4-(4)-------|
|----------------------------------------|
|----------------------------------------|
|
|  S  S S S  S  S S S S  S S S  S  S S S
|----------------------------------------|
|----------------------------------------|
|-----------------0------------------0---|
|-------4-------4---4------4-------4---4-|
|-----2------2-----------2------2--------|
|--0------3-----------0------3-----------|


  Esus2   Gmaj7     Bbmaj7
 ~~~~~
  +W
|------------------------------------------|
|------------------------------------------|
|------------------------------------------|
|------------------------------------------|
|------------------------------------------|
|-(0)--------------------------------------|
|
|  E.     S +E.     S +Q.           S +S
|------------------------------------------|
|------------------------------------------|
|--4------2-(2)-----0-(0)------------------|
|-----------------------------------2-(2)/-|
|------------------------------------------|
|------------------------------------------|
|
|  S  S S S  S  S S S +S  S S S S S S  S
|------------------------------------------|
|-------------------------------3----------|
|-----------------0---------2s3---0-2h=3---|
|-------4-------4---------0----------------|
|-----2------2------1-(1)------------------|
|--0------3--------------------------------|


  Esus2  Gmaj7       Esus2  Gmaj7
  Gtrs III, IV
  S  S S S  S  S S S S  S S S  S  S S S
|---------------------------------------|
|---------------------------------------|
|----------------0------------------0---|
|------4-------4---4------4-------4---4-|
|----2------2-----------2------2--------|
|-0------3-----------0------3-----------|
|
| Gtrs V, VI
| E.     S +Q        E.     S +Q
|---------------------------------------|
|---------------------------------------|
|-4------2-(2)-------4------------------|
|---------------------------4-(4)-------|
|---------------------------------------|
|---------------------------------------|


  Esus2  Gmaj7     Bbmaj7
  S  S S S  S  S S S +S  S S S S S S  S
|-----------------------------------------|
|------------------------------3----------|
|----------------0---------2s3---0-2h=3---|
|------4-------4---------0----------------|
|----2------2------1-(1)------------------|
|-0------3--------------------------------|
|
| E.     S +E.     S +Q.           S +S
|-----------------------------------------|
|-----------------------------------------|
|-4------2-(2)-----0-(0)------------------|
|----------------------------------2-(2)/-|
|-----------------------------------------|
|-----------------------------------------|


                                                                 D.S. al Coda
  Esus2  Gmaj7       Esus2  Gmaj7         Esus2  Gmaj7     Bbmaj7
  S  S S S  S  S S S S  S S S  S  S S S   S  S S S  S  S S S +S  S S S S S S S
|---------------------------------------|--------------------------------------|
|---------------------------------------|------------------------------3-------|
|----------------0------------------0---|----------------0---------2s3---0-2h3-|
|------4-------4---4------4-------4---4-|------4-------4---------0-------------|
|----2------2-----------2------2--------|----2------2------1-(1)---------------|
|-0------3-----------0------3-----------|-0------3-----------------------------|
|
| E.     S +Q        E.     S +Q          E.     S +E.     S +H
|---------------------------------------|--------------------------------------|
|---------------------------------------|--------------------------------------|
|-4------2-(2)-------4------------------|-4------2-(2)-----0-(0)---------------|
|---------------------------4-(4)-------|--------------------------------------|
|---------------------------------------|--------------------------------------|
|---------------------------------------|--------------------------------------|
|
| Gtrs I, II
|                                                                PM----------|
| W                                       Q         E.     S +S  S S S S S S S
|---------------------------------------|--------------------------------------|
|---------------------------------------|--------------------------------------|
|---------------------------------------|------------------2-(2)---------------|
|---------------------------------------|------------------0-(0)-0-0-0-0-0-0-0-|
|---------------------------------------|------------------1-(1)-1-1-1-1-1-1-1-|
|---------------------------------------|--------------------------------------|


  &
  Esus2 Gmaj7     Esus2 Gmaj7       Esus2   Gmaj7   Bbmaj7
  Gtrs I, II
  W                                 +W
|---------------------------------|-------------------------------------|
|---------------------------------|-------------------------------------|
|---------------------------------|-------------------------------------|
|---------------------------------|-------------------------------------|
|---------------------------------|-------------------------------------|
|-0-------------------------------|-(0)---------------------------------|
|
| Gtrs V, VI
| >
| ~~~~~~~~~~~~~~~~~~~~~~~~~~~~~~~~~~~~~~
| W                                 +W
|-7-------------------------------|-(7)---------------------------------|
|-5-------------------------------|-(5)---------------------------------|
|---------------------------------|-------------------------------------|
|---------------------------------|-------------------------------------|
|---------------------------------|-------------------------------------|
|---------------------------------|-------------------------------------|
|
| Gtrs III, IV
| S S S S S S S S S S S S S S S S    S  S S S S S S S +S  S S S S S S S
|---------------------------------|-------------------------------------|
|---------------------------------|-----------------------------3-------|
|-------------0---------------0---|---------------0---------2s3---0-2h3-|
|-----4-----4---4-----4-----4---4-|-------4-----4---------0-------------|
|---2-----2---------2-----2-------|-----2-----2-----1-(1)---------------|
|-0-----3---------0-----3---------|--0------3---------------------------|


  Esus2   Gmaj7     Esus2 Gmaj7       Esus2   Gmaj7   Bbmaj7
  Gtrs I, II
  +W                                  +W
|-----------------------------------|-------------------------------------|
|-----------------------------------|-------------------------------------|
|-----------------------------------|-------------------------------------|
|-----------------------------------|-------------------------------------|
|-----------------------------------|-------------------------------------|
|-(0)-------------------------------|-(0)---------------------------------|
|
| Gtrs III, IV
|  S  S S S S S S S S S S S S S S S    S  S S S S S S S +S  S S S S S S S
|-----------------------------------|-------------------------------------|
|-----------------------------------|-----------------------------3-------|
|---------------0---------------0---|---------------0---------2s3---0-2h3-|
|-------4-----4---4-----4-----4---4-|-------4-----4---------0-------------|
|-----2-----2---------2-----2-------|-----2-----2-----1-(1)---------------|
|--0------3---------0-----3---------|--0------3---------------------------|


 Clean Interlude
  Em F#m    Em           C   D        Em
  Gtrs III, IV
  E. S +Q   E. S +E  e   E S  S +S  S E +Q   E S S
|----------------------|---------------------0-----|
|-0--------------------|---------------------0-----|
|-0--2-(2)--0----------|---------------------0-----|
|-2--4-(4)--2--4-(4)-4-|-2-2-/4-(4)-4--------2-----|
|--------------3-(3)-3-|-3-3-/5-(5)-5----------0h2-|
|----------------------|--------------0-(0)--------|


  C     Dsus4   Em
  S S S S +S  S  E  +E  S  S  E S S
|-----------------------------0------|
|-----------------------------0------|
|-----0-0-(0)-0-(0)-(0)-8s=9--9------|
|---2--------------------------------|
|-3-----5-(5)-5s=7--(7)-9s10-10-0h2--|
|------------------------------------|


  C           DsEm4            C     D    Eb     Ebmaj7
  S S S S +S  S E +Q   E S S   S S S  S E E +Q   Q
|----------------------0-----|----------------------|
|----------------------0-----|-------------------8--|
|-----0-0-(0)-0--------0-----|-----0-------------7--|
|---2------------------2-----|---2---/4-------------|
|-3-----5-(5)-5----------0h2-|-3-----/5---6-(6)--6--|
|---------------0-(0)--------|----------------------|


      N.C.
 6/4
               Gtrs I, II
  +S  S S S Q  a  E e S S S S e S E S S S
|-------5s6----8s10-------5s7-7-------------|
|-(8)-------8--8s10-8-x-x-5s7-7-------------|
|-(7)-7---------------x-x-7s9-9-------------|
|-------------------------------7-9-9-------|
|-(6)---------------------------------7h9---|
|-------------------------------------------|


  Fmaj7
 4/4
  Gtrs I, II
  Q   +S  S S  S S +S    +S   S S +S     +S   S
|-----------------------------------------------|
|-----------------------------------------------|
|----------------7-(7)b8-(7)--------------------|
|-----------7-10-------------10-9-(9)b10-(9)----|
|-8---(8)-8----------------------------------10-|
|-----------------------------------------------|
|
| Gtrs III, IV
| E E  E    S  S S  S     E     E         S   S
|-5----5-------5----------------5-------------5-|
|-5-5--5----5--5-5--5-----5-----5---------5---5-|
|-5-5--5----5--5-5--5-----5-----5---------5---5-|
|-7-7--7----7--7-7--7-----7-----7---------7---7-|
|-8-8--8----8--8-8--8-----8-----8---------8---8-|
|-----------------------------------------------|


  Q.     +S  S +Q..         T T
|-------------------------------|
|-------------------------------|
|-------------------------------|
|---------------------------5s7-|
|-8------(8)-7-(7)--------------|
|-------------------------------|
|
| E  E E  S  S  S   S E E S S
|-5----5-----5----------5---5---|
|-5--5-5--5--5--5---5-5-5-5-5---|
|-5--5-5--5--5--5---5-5-5-5-5---|
|-7--7-7--7--7--7---7-7-7-7-7---|
|-8--8-8--8--8--8---8-8-8-8-8---|
|-------------------------------|


  Dm
  E.   T T e S s S S E +Q
|------------------------------|
|------------------------------|
|-7--------7-5h7-7h9-9-(9)-----|
|------5s7---------------------|
|------------------------------|
|------------------------------|
|
| E  E     E S S S S E  E  S S
|-1--1-----1-1-1-1-1-1--1--1-1-|
|-3--3-----3-3-3-3-3-3--3--3-3-|
|-2--2-----2-2-2-2-2-2--2--2-2-|
|-0--0-----0-0-0-0-0-0--0--0-0-|
|------------------------------|
|------------------------------|


  D                               N.C.
  S  S  +Q.        +H              W
|--------------------------------|------------------------------|
|--------------------------------|------------------------------|
|---10-(10)-------(10)-----------|------------------------------|
|-6------------------------------|------------------------------|
|--------------------------------|------------------------------|
|--------------------------------|------------------------------|
|
| E      E  E S S   S  S E E S S   S S S S S S  S S S S  S S Q
|-1------1--1-1-1---1--1-1-1-1-1-|------------------7-----------|
|-3------3--3-3-3---3--3-3-3-3-3-|------------------------------|
|-1------1--1-1-1---1--1-1-1-1-1-|-----4-5--------9---9---------|
|-0------0--0-0-0---0--0-0-0-0-0-|---2-----7-7S10-------10s9-7--|
|--------------------------------|-0----------------------------|
|--------------------------------|------------------------------|


  Amadd2               Cm    Amadd2
 15/16
  Gtrs III, IV
  E. S +S  S S S  Q     E.    E. S S S S S  Q     E.
|--------------0-----------|-------------0-----------|
|------------0----0--------|-----------0----0--------|
|-5--------5------------8--|--5------5------------8--|
|-7--------------------10--|--7----7-------------10--|
|-0--0-(0)-----------------|--0--0-------------------|
|--------------------------|-------------------------|
|
| Gtrs V, VI
|    <                        >
| E. S +Q        +Q..        +H            +Q..
|----7-(7)-------(7)-------|-(7)-----------(7)-------|
|----5-(5)-------(5)-------|-(5)-----------(5)-------|
|--------------------------|-------------------------|
|--------------------------|-------------------------|
|----7-(7)-------(7)-------|-(7)-----------(7)-------|
|--------------------------|-------------------------|


  Amadd2                     Amadd2
  E. S  S  S S S  Q     E.    E. S S S S S  Q     E.
|--------------0-----------|-------------0------------|
|------------0----0--------|-----------0----0---------|
|-5--------5------------8--|--5------5------------8---|
|-7-----7--------------10--|--7----7-------------10---|
|-0--0---------------------|--0--0--------------------|
|--------------------------|--------------------------|
|
|    <                        >
| E. S +Q        +Q..        +H            +Q..
|----6-(6)-------(6)-------|-(6)-----------(6)--------|
|----5-(5)-------(5)-------|-(5)-----------(5)--------|
|--------------------------|--------------------------|
|--------------------------|--------------------------|
|----7-(7)-------(7)-------|-(7)-----------(7)--------|
|--------------------------|--------------------------|


  Amadd2               Cm    Amadd2                Cm
  E. S  S  S S S  Q     E.    E. S  S  S S S  Q     E.
|--------------0-----------|---------------0-----------|
|------------0----0--------|-------------0----0--------|
|-5--------5------------8--|--5--------5------------8--|
|-7-----7--------------10--|--7-----7--------------10--|
|-0--0---------------------|--0--0---------------------|
|--------------------------|---------------------------|
|
|    <               <           <
| E. S +Q        +E  E +E.   +E. S +Q        +Q..
|--------------------------|---------------------------|
|----7-(7)-------(7)-6-(6)-|-(6)-5-(5)-------(5)-------|
|--------------------------|---------------------------|
|--------------------------|---------------------------|
|--------------------------|---------------------------|
|--------------------------|---------------------------|


  Amadd2                Cm    Amadd2                F#m
                                                    Gtrs I, II
   E. S  S  S S S  Q     E.    E. S  S  S S S  Q    e.
|---------------0-----------|---------------0-------2--|
|-------------0----0--------|-------------0----0----2--|
|--5--------5------------8--|--5--------5-----------2--|
|--7-----7--------------10--|--7-----7--------------4--|
|--0--0---------------------|--0--0-----------------4--|
|---------------------------|-----------------------2--|
|
|     <               <           <
| +E. S +Q        +E  E +E.   +E. S +Q        +Q..
|---------------------------|--------------------------|
|-(5)-7-(7)-------(7)-6-(6)-|-(6)-5-(5)-------(5)------|
|-----5-(5)-------(5)-5-(5)-|-(5)----------------------|
|---------------------------|-----7-(7)-------(7)------|
|---------------------------|--------------------------|
|---------------------------|--------------------------|


 Guitar Solo
  Fm                                  F#m
 4/4
  Gtrs V, VI
  |--3--|   |---3---|   |---3---|
  E E   E   E   E   E   E   E   E   E   +E
|---6---8---9---8---6---------------------------|
|-----------------------7---6---4---6---(6)b7---|
|-----------------------------------------------|
|-----------------------------------------------|
|-----------------------------------------------|
|-----------------------------------------------|
|
| Gtrs I, II
|                             PM----|         PM
| E   S   S S S   S   S S S   S   S S e       S
|-----------------------------------------------|
|-1---1---1-1-1---1---1---1-----------2---------|
|-1---1---1-1-1---1---1---1---x---x-x-2-------x-|
|-3---3---3-3-3---3---3---3---x---x-x-4-------x-|
|-3---3---3-3-3---3---3---3---x---x-x-4-------x-|
|-1---1---1-1-1---1---1---1---x---x-x-2-------x-|


  Fm                             F#m
  +E.    S E.    S S  S  S  S  S S E
|-------/9-8S====9-9S11-11S13-13S8-8-----|
|-(6)------------------------------------|
|----------------------------------------|
|----------------------------------------|
|----------------------------------------|
|----------------------------------------|
|
|                        PM---|      PM
|  E  S  S S S S S S  S  S  S  S e   S
|----------------------------------------|
|--1--1--1-1-1-1-1----1----------2-------|
|--1--1--1-1-1-1-1----1--x--x--x-2---x---|
|--3--3--3-3-3-3-3----3--x--x--x-4---x---|
|--3--3--3-3-3-3-3----3--x--x--x-4---x---|
|--1--1--1-1-1-1-1----1--x--x--x-2---x---|


  Fm                                     F#m
  +E  S S S  S  S  S  S  S  S  S  +S   S  S  S
|-(8)------------------------------------------|
|-------7-6S16-16S13-13-------14-(14)-11-------|
|-----5-----------------11-10------------11-10-|
|----------------------------------------------|
|----------------------------------------------|
|----------------------------------------------|
|
|                           PM---|           PM
|  E  S S S  S  S  S  S  S  S  S   S   e     S
|----------------------------------------------|
|--1--1-1-1--1--1--1-----1-------------2-------|
|--1--1-1-1--1--1--1-----1--x--x---x---2-----x-|
|--3--3-3-3--3--3--3-----3--x--x---x---4-----x-|
|--3--3-3-3--3--3--3-----3--x--x---x---4-----x-|
|--1--1-1-1--1--1--1-----1--x--x---x---2-----x-|


  Fm                                     G#m
   +S   S  S  S S  E    S  E    S S  S S  E
|---------------------------------------------|
|----------------------13-11---11p7-----------|
|-(10)\---------8S10----------------10S8-10---|
|---------10-11-------------------------------|
|-------8-------------------------------------|
|---------------------------------------------|
|
|                               PM--|       PM
|   E      S  S S  S S  S  S S  S S  S e    S
|---------------------------------------------|
|---1------1--1-1--1-1--1----1---------4------|
|---1------1--1-1--1-1--1----1--x-x--x-4----x-|
|---3------3--3-3--3-3--3----3--x-x--x-6----x-|
|---3------3--3-3--3-3--3----3--x-x--x-6----x-|
|---1------1--1-1--1-1--1----1--x-x--x-4----x-|


  Gm                              G#m
  |-3-|  |--3---| |--3--| |--3--|   |---3---|   |--3--|
  S S S  S S    S S S   S S S   S   E   E   E   E   E E
|-------------------------8-7---8-/10---8---7---8---7-----|
|-----------------8-6---8-----------------------------9---|
|-7-5-7-10-7---10-----------------------------------------|
|---------------------------------------------------------|
|---------------------------------------------------------|
|---------------------------------------------------------|
|
|                                         PM----|       PM
| E      S   S    S   S   S   S     S S   S   S S e     S
|---------------------------------------------------------|
|-3------3---3----3---3---3---3-------3-----------4-------|
|-3------3---3----3---3---3---3-------3---x---x-x-4-----x-|
|-5------5---5----5---5---5---5-------5---x---x-x-6-----x-|
|-5------5---5----5---5---5---5-------5---x---x-x-6-----x-|
|-3------3---3----3---3---3---3-------3---x---x-x-4-----x-|


  Gm                                  G#m
                                        |---3---|
   S  S  S  S  S  S  S  S  S  S  S  S   E    E  E
|-15-16-13-------15----15-----------------------------|
|----------15-16----15----13-12-13-15-/18---16-18-----|
|-----------------------------------------------------|
|-----------------------------------------------------|
|-----------------------------------------------------|
|-----------------------------------------------------|
|
|                                PM---|           PM
|  E     S  S  S  S  S  S  S  S  S  S   S e       S
|-----------------------------------------------------|
|--3-----3--3--3--3--3--3-----3-----------4-----------|
|--3-----3--3--3--3--3--3-----3--x--x---x-4-------x---|
|--5-----5--5--5--5--5--5-----5--x--x---x-6-------x---|
|--5-----5--5--5--5--5--5-----5--x--x---x-6-------x---|
|--3-----3--3--3--3--3--3-----3--x--x---x-4-------x---|


  Gm                            G#m
   H.                        Q
|-15------------------------15\-----|
|-18b20-----------------------------|
|-----------------------------------|
|-----------------------------------|
|-----------------------------------|
|-----------------------------------|
|
|                       PM--|     PM
|  E    S S S S S S S S S S  S  e S
|-----------------------------------|
|--3----3-3-3-3-3-3---3---------4---|
|--3----3-3-3-3-3-3---3-x-x--x--4-x-|
|--5----5-5-5-5-5-5---5-x-x--x--6-x-|
|--5----5-5-5-5-5-5---5-x-x--x--6-x-|
|--3----3-3-3-3-3-3---3-x-x--x--4-x-|


  Gm                                F#m
  S S S S S   S  S  S  +S   S  S  S  S  E.
|--------------------------------------------|
|-8---8------------11-(11)-------14-14h15----|
|---7-----7-/11h12---------11-12-------------|
|-------8------------------------------------|
|--------------------------------------------|
|--------------------------------------------|
|
|                              PM---|      PM
| E   S S S   S  S  S   S   S  S  S  S  e  S
|--------------------------------------------|
|-3---3-3-3---3--3--3-------3-----------2----|
|-3---3-3-3---3--3--3-------3--x--x--x--2--x-|
|-5---5-5-5---5--5--5-------5--x--x--x--4--x-|
|-5---5-5-5---5--5--5-------5--x--x--x--4--x-|
|-3---3-3-3---3--3--3-------3--x--x--x--2--x-|


  Fm                              F#m
   Q          +H.
|-13---------(13)---------------------|
|-16b18======(16)---------------------|
|-------------------------------------|
|-------------------------------------|
|-------------------------------------|
|-------------------------------------|
|
|                           PM--|   PM
|  E     S S   S  S S S S S S S S e S
|-------------------------------------|
|--1-----1-1---1--1-1-1---1-------2---|
|--1-----1-1---1--1-1-1---1-x-x-x-2-x-|
|--3-----3-3---3--3-3-3---3-x-x-x-4-x-|
|--3-----3-3---3--3-3-3---3-x-x-x-4-x-|
|--1-----1-1---1--1-1-1---1-x-x-x-2-x-|


    Fm                         F#m     Fm                          G#m
     +W                                 +W
||--(13)----------------------------||-(13)-----------------------------|
||o-(16)---------------------------o||-(16)r----------------------------|
||----------------------------------||----------------------------------|
||----------------------------------||----------------------------------|
||o--------------------------------o||----------------------------------|
||----------------------------------||----------------------------------|
|
|                        PM--|   PM                          PM--|   PM
|     E  S S S S S S S S S S S e S       E   S S S S S S S S S S S e S
||----------------------------------||----------------------------------|
||o---1--1-1-1-1-1-1---1-------2---o||---1---1-1-1-1-1-1---1-------4----|
||----1--1-1-1-1-1-1---1-x-x-x-2-x--||---1---1-1-1-1-1-1---1-x-x-x-4-x--|
||----3--3-3-3-3-3-3---3-x-x-x-4-x--||---3---3-3-3-3-3-3---3-x-x-x-6-x--|
||o---3--3-3-3-3-3-3---3-x-x-x-4-x-o||---3---3-3-3-3-3-3---3-x-x-x-6-x--|
||----1--1-1-1-1-1-1---1-x-x-x-2-x--||---1---1-1-1-1-1-1---1-x-x-x-4-x--|


  Gm                              G#m   Gm                         G#m
   Q          +H.                        +W
|-15---------(15)---------------------|-(15)----------------------------|
|-18b20======(18)---------------------|-(18)----------------------------|
|-------------------------------------|---------------------------------|
|-------------------------------------|---------------------------------|
|-------------------------------------|---------------------------------|
|-------------------------------------|---------------------------------|
|
|                           PM--|   PM                       PM--|   PM
|  E     S S   S  S S S S S S S S e S     E  S S S S S S S S S S S e S
|-------------------------------------|---------------------------------|
|--3-----3-3---3--3-3-3---3-------4---|---3--3-3-3-3-3-3---3-------4----|
|--3-----3-3---3--3-3-3---3-x-x-x-4-x-|---3--3-3-3-3-3-3---3-x-x-x-4-x--|
|--5-----5-5---5--5-5-5---5-x-x-x-6-x-|---5--5-5-5-5-5-5---5-x-x-x-6-x--|
|--5-----5-5---5--5-5-5---5-x-x-x-6-x-|---5--5-5-5-5-5-5---5-x-x-x-6-x--|
|--3-----3-3---3--3-3-3---3-x-x-x-4-x-|---3--3-3-3-3-3-3---3-x-x-x-4-x--|


  Gm                         G#m   Gm        N.C.
   +W                               +W
|-(15)---------------------------|-(15)-----------------------|
|-(18)---------------------------|-(18)r----------------------|
|--------------------------------|----------------------------|
|--------------------------------|----------------------------|
|--------------------------------|----------------------------|
|--------------------------------|----------------------------|
|
|                      PM--|   PM
|   E  S S S S S S S S S S S e S     E   S S E. S +E  E  E  E
|--------------------------------|----------------------------|
|---3--3-3-3-3-3-3---3-------4---|---3---3-3------------------|
|---3--3-3-3-3-3-3---3-x-x-x-4-x-|---3---3-3------------------|
|---5--5-5-5-5-5-5---5-x-x-x-6-x-|---5---5-5-------------6--7-|
|---5--5-5-5-5-5-5---5-x-x-x-6-x-|---5---5-5-6--5-(5)---------|
|---3--3-3-3-3-3-3---3-x-x-x-4-x-|---3---3-3----------4-(4)---|


   Breakdown
    Am                 Eb/A         Am                Eb/A
     Q  E.   S +Q      +S  E.       Q  E.   S +Q      +S  E.
||--------------------------------|------------------------------|
||o-------------------------------|------------------------------|
||--/5--4------------------4------|-5--4------------------4------|
||-----------2-(2)-----(2)--------|---------2-(2)-----(2)--------|
||o-------------------------------|------------------------------|
||--------------------------------|------------------------------|
|
|    Q  S  e S  e  S S  S  S  S S   Q  S  e S  e  S S  S  S  S S
||--------------------------------|------------------------------|
||o--1--1--1-1--1--1-1-----4--4-4-|-1--1--1-1--1--1-1-----4--4-4-|
||---2--2--2-2--2--2-2-----0--0-0-|-2--2--2-2--2--2-2-----0--0-0-|
||---2--2--2-2--2--2-2-----1--1-1-|-2--2--2-2--2--2-2-----1--1-1-|
||o--0--0--0-0--0--0-0-----0--0-0-|-0--0--0-0--0--0-0-----0--0-0-|
||--------------------------------|------------------------------|


  1.,2.,3.
  N.C.
  Q  T T S S S +S  E S E. S   E S S S E S +S  S S S S S S S
|---------------------------|--------------------------------||
|---------------------------|-------------------------------o||
|---------------------------|--------------------------------||
|-5--4h5p4------------------|---5h6-3h5-4-(4)---4---------7--||
|----------7-6-(6)----------|-----------------6---5p0-5h6---o||
|------------------8-7-7--0h|=4------------------------------||
|
| Q  T T S S S +S  E S E. S   E S S S E S +S  S S S S S S S
|---------------------------|--------------------------------||
|---------------------------|-------------------------------o||
|---------------------------|--------------------------------||
|---------------------------|---5h6-3h5-4-(4)---4---4-----7--||
|-7--6h7p6-------------7----|-----------------6---5---5h6---o||
|----------8-7-(7)-5-0----0h|=4------------------------------||


  4.
  N.C.
  Q  T T S S S +S  E S Q    E. S +E  E +S  E. Q
|-------------------------|----------------------|
|-------------------------|-6--8-(8)-9-(9)-8--3--|
|-------------------------|----------------------|
|-5--4h5p4----------------|----------------------|
|----------7-6-(6)--------|----------------------|
|------------------8-7-7--|----------------------|
|
| Q  T T S S S +S  E S Q    E. S +E  E +S  E. Q
|-------------------------|----------------------|
|-------------------------|----------------------|
|-------------------------|----------------------|
|-------------------------|----------------------|
|-7--6h7p6-------------7--|-3--3-(3)-6-(6)-6--5--|
|----------8-7-(7)-5-0----|-1--0-(0)-4-(4)-4--3--|


 Outro
  Eadd2          Badd2
 4/4
  Gtrs V, VI
   >
   W
|------------------------------------------|
|-/7---------------------------------------|
|------------------------------------------|
|------------------------------------------|
|------------------------------------------|
|------------------------------------------|
|
| Gtr I
|  S  S  S S S S  E  +S   S  S  S  E  S  S
|------------------------------------------|
|------------------------------------------|
|------------------------------------------|
|--2h=4--4-4-----11-(11)-11-12-11-11-11-11-|
|--2-(2)-2-2------9--(9)--9--9--9--9--9--9-|
|--0-(0)-0-0-0-0--7--(7)--7--7--7--7--7--7-|
|
| Gtr II
|  S  S  S S S S  E  +S   S  S  S  E  S  S
|------------------------------------------|
|------------------------------------------|
|------------------------------------------|
|--2h=4--4-4-----11-(11)-11-11-11-11-11-11-|
|--2-(2)-2-2------9--(9)--9--9--9--9--9--9-|
|--0-(0)-0-0-0-0--7--(7)--7--7--7--7--7--7-|


  BmC/E            G       F#         Am/C
  Gtr VI
  Q.                E  +S   S  S  +S   E  S  S
|----------------------------------------------|
|----------------------------------------------|
|------------------12-(12)-11-11-(11)--9--9--9-|
|----------------------------------------------|
|------------------10-(10)--9--9--(9)--7--7--7-|
|----------------------------------------------|
|
| S  S  S  S  S  S  E  +S   S  E       E  S  S
|----------------------------------------------|
|----------------------------------------------|
|-7s=9--9--9--9--9-12-(12)-11-11---------------|
|-9s10-10-10-10-10--------------------10-10-10-|
|-5s=7--7--7--7--7-10-(10)--9--9------12-12-12-|
|--------------------------------------8--8--8-|
|
| S  S  S  S  S  S  E  +S   S  E       E  S  S
|----------------------------------------------|
|----------------------------------------------|
|----------------------------------------------|
|----------------------------------------------|
|-9s10-10-10-10-10-10-(10)-10-10-------7--7--7-|
|----------------------------------------------|


  N.C.                            F           A5    A5/A5/B
  Gtrs I, II
  S S S S S S E +S  S S S E S S   S S S S S S E +S  E. E S S
|-------------------------------|----------------------------|
|-------------------------------|----------------------------|
|-------------------------------|-------------2-(2)-2--2-2-2-|
|-------------5-(5)-------------|-5s3-3-3-3-3-2-(2)-2--2-2-2-|
|---------5h7-5-(5)-2-3-5-------|-------------0-(0)-1--2-2-2-|
|-3s5-5-5-----------------5-5-0-|-3s1-1-1-1-1----------------|


    Eadd2         Badd2
    Gtr I
    S  S  S S S S  E  +S   S  S  S  E  S  S
||------------------------------------------|
||o-----------------------------------------|
||------------------------------------------|
||--2h=4--4-4-----11-(11)-11-12-11-11-11-11-|
||o-2-(2)-2-2------9--(9)--9--9--9--9--9--9-|
||--0-(0)-0-0-0-0--7--(7)--7--7--7--7--7--7-|
|
|   Gtr II
|   S  S  S S S S  E  +S   S  S  S  E  S  S
||------------------------------------------|
||o-----------------------------------------|
||------------------------------------------|
||--2h=4--4-4-----11-(11)-11-11-11-11-11-11-|
||o-2-(2)-2-2------9--(9)--9--9--9--9--9--9-|
||--0-(0)-0-0-0-0--7--(7)--7--7--7--7--7--7-|
|
|   Gtr VI
|   W
||------------------------------------------|
||o-----------------------------------------|
||------------------------------------------|
||------------------------------------------|
||o-----------------------------------------|
||------------------------------------------|


  BmC/E            G       F#         Am/C
  S  S  S  S  S  S  E  +S   S  E       E  S  S
|----------------------------------------------|
|----------------------------------------------|
|-7s=9--9--9--9--9-12-(12)-11-11---------------|
|-9s10-10-10-10-10--------------------10-10-10-|
|-5s=7--7--7--7--7-10-(10)--9--9------12-12-12-|
|--------------------------------------8--8--8-|
|
| S  S  S  S  S  S  E  +S   S  E       E  S  S
|----------------------------------------------|
|----------------------------------------------|
|----------------------------------------------|
|----------------------------------------------|
|-9s10-10-10-10-10-10-(10)-10-10-------7--7--7-|
|----------------------------------------------|
|
| Q.                E  +S   S  S  +S   E  S  S
|----------------------------------------------|
|----------------------------------------------|
|------------------12-(12)-11-11-(11)--9--9--9-|
|----------------------------------------------|
|------------------10-(10)--9--9--(9)--7--7--7-|
|----------------------------------------------|


  N.C.                            F           A5    A5/A5/B
  Gtrs I, II
  S S S S S S E +S  S S S E S S   S S S S S S E +S  E. E S S  7x
|-------------------------------|-----------------------------||
|-------------------------------|----------------------------o||
|-------------------------------|-------------2-(2)-2--2-2-2--||
|-------------5-(5)-------------|-5s3-3-3-3-3-2-(2)-2--2-2-2--||
|---------5h7-5-(5)-2-3-5-------|-------------0-(0)-1--2-2-2-o||
|-3s5-5-5-----------------5-5-0-|-3s1-1-1-1-1-----------------||

Performance Notes
-----------------
A lot of the guitar came from Heimo Kanerva's brilliant tab...I checked all of it against 

the song very closely and made changes where I thought they needed to be, but his tab was a 

big help.  There are some places where the midi playback freaks out, especially during the 

outro, but it should be right if you play it!

Duration Legend
---------------
W - whole; H - half; Q - quarter; E - 8th; S - 16th; T - 32nd; X - 64th; a - acciaccatura
+ - note tied to previous; . - note dotted; .. - note double dotted
Uncapitalized letters represent notes that are staccato (1/2 duration)
Irregular groupings are notated above the duration line
Duration letters will always appear directly above the note/fret number it represents the
duration for.  Duration letters with no fret number below them represent rests.  Multi-
bar rests are notated in the form Wxn, where n is the number of bars to rest for.  Low
melody durations appear below the staff

Tablature Legend
----------------
 h   - hammer-on
 p   - pull-off
 b   - bend
 pb  - pre-bend
 r   - bend release (if no number after the r, then release immediately)
 /\  - slide into or out of (from/to "nowhere")
 s   - legato slide
 S   - shift slide
  - natural harmonic
[n]  - artificial harmonic
n(n) - tapped harmonic
 ~   - vibrato
 tr  - trill
 T   - tap
 TP  - trem. picking
 PM  - palm muting
\n/  - tremolo bar dip; n = amount to dip
 \n  - tremolo bar down
 n/  - tremolo bar up
/n\  - tremolo bar inverted dip
 =   - hold bend; also acts as connecting device for hammers/pulls
 <>  - volume swell (louder/softer)
 x   - on rhythm slash represents muted slash
 o   - on rhythm slash represents single note slash

Misc Legend
-----------
 |  - bar
||  - double bar
||o - repeat start
o|| - repeat end
*|  - double bar (ending)
 :  - bar (freetime)
 $  - Segno
 &  - Coda
Tempo markers -  = BPM(8/16=s8/s16), where s8 = swing 8ths, s16 = swing 16ths

Tab found somewhere, credit where its due.
Related for Moonlapse Vertigo tab