Song name
# A B C D E F G H I J K L M N O P Q R S T U V W X Y Z

Opeth - Ending Creditsbest tab

                             ENDING CREDITS

E-.--------------------------------------------------------------------------|
B-.-------------------10------12^(13)-12^(13)r12--10--12~~-------------------|
G-.-----------9/11~~-------9-------------------------------------------------|
D-.--9--9h10-----------------------------------------------------------------|
A-.--------------------------------------------------------------------------|
E-.--------------------------------------------------------------------------|

E-.-------------------------------------------------------------------------.
B-.-------------------------------------------------------------------------.
G-.--------------9/11--12--9--8-----8~~-------------------------------------.
D-.--9--9--9h10------------------9------9~~--9------------------------------.
A-.---------------------------------------------12--10--9~~-----------------.
E-.----------------------------------------------------------12-------------.

                                         D.C AT FINE (REPEAT)

E-.--------------------------------------------------------------------------|
B-.--8--8\7-----7--10--8--7h8--10--7-----------------------------------------|
G-.----------9------------------------9~~------------------------------------|
D-.----------------------------------------9/10--10--9--7--7/9~~-------------|
A-.--------------------------------------------------------------------------|
E-.--------------------------------------------------------------------------|

E-.--------------------------------------------------------------------------|
B-.--------------------------------------------------------------------------|
G-.--------------------------------------------------------------------------|
D-.--9-----------------------------------------------------------------------|
A-.-----12--10--9~~-----12--10--9--10------12--10--9------12--10--9--10------|
E-.-----------------12-----------------12-------------12-----------------12--|


^     bend                        BY:OPETH,DAMNATION,2003
r     release bend
/     slide up
\     slide down
h     hammer on
~     vibrato


                    WRITER:SAEED NIK KHOLGH 2005 (10  pm  TEHRAN)
                    E.MAIL:LSSAEED@YAHOO.COM

its` really perfect.u know its` my first tab.play it & ;-)


FINISH.
Tap to rate this tab
 
# A B C D E F G H I J K L M N O P Q R S T U V W X Y Z