Song name
# A B C D E F G H I J K L M N O P Q R S T U V W X Y Z

Opeth - Remember Tomorow tab

Help us improve GuitareTab! Take a short survey!
---------------------------------------------------------------------------|
---------------------------------------------------------------------------|
9-----9-----9-----9-----9-----9-----10-----10-----10-----9-----9-----9-----| x7
--7-----7-----------7-----7------------8------8------------7-----7---------|
----0-----0-----0-----0-----0-----0------0------0------0-----0-----0----0--|
---------------------------------------------------------------------------|

The seventh time is like this.

------------------------------------------------------0-|
------------------------------------------------------0-|
9-----9-----9----9-----9-----9----10-----10-----10----9-|
--7-----7----------7-----7-----------8------8---------7-|
----0-----0----0-----0-----0----0------0------0----0--0-|
--------------------------------------------------------|
Related for Remember Tomorow tab