Song name
# A B C D E F G H I J K L M N O P Q R S T U V W X Y Z

Opeth - Reverieharlequin Forest tab

Help us improve GuitareTab! Take a short survey!
                            REVERIE/HARLEQUIN FOREST
                              As recorded by Opeth
                      (From the 2005 Album GHOST REVERIES)

Words by Mikael Akerfeldt

Music by Opeth
Transcribed by Erik Dietrich

Gtr I (D A D F A E) - 'L'
Gtr II (D A D F A E) - 'R'
Gtr III (D A D F A E) - '12 string low (L)'
Gtr IV (D A D F A E) - '12 string high'
Gtr V (D A D F A E) - 'R Acoustic'
Gtr VI (D A D F A E) - 'C'

   Intro
    E=181
    Dm                 Am              F5/C#           C5/Ab
   4/4
    Gtrs III, V
     S  S  S  S   S  S E S S E E S S    S   S  S S S S  E   S  S E E S S
||--10-10-10-10------x-5-5-5-5-5-0-0-|--8---8--8-8---x--3---3--3-3-3-0-0-|
||o--8--8--8--8------x-3-3-3-3-3-0-0-|--8---8--8-8---x--3---3--3-3-3-0-0-|
||---9--9--9--9------x-4-4-4-4-4-----|--8---8--8-8---x--3---3--3-3-3-----|
||-----------------------------------|-----------------------------------|
||o----------------------------------|-----------------------------------|
||-----------------------------------|-----------------------------------|
|
|   Gtr VI
|    <                                  <               <
|    Q           +H.                    S  +E.     E    E  +H
||-----------------------------------|-----------------------------------|
||o-12----------(12)-----------------|-15-(15)---------10-(10)-----------|
||-----------------------------------|-----------------------------------|
||-----------------------------------|-----------------------------------|
||o----------------------------------|-----------------------------------|
||-----------------------------------|-----------------------------------|


  1.,2.,3.,4.,5.
  N.C.                                               Am/F#
  Gtr I
   <      <  <   <   <   <   <   <   <    <    <  <   <   <  <
   E      S  S   S   S   S   S   S   S    S    S  S   S   S  S
|--------12-----10--12--12--10------12-------------------------|
|-12--------12------------------15-------14---15-12--14--14-12-|
|--------------------------------------------------------------|
|--------------------------------------------------------------|
|--------------------------------------------------------------|
|--------------------------------------------------------------|
|
| Gtrs III, V
|  S  S   E      S   S   S   S   S   S    S    S +S   E.
|--------------------------------------------------------------|
|----------------5h==7p==5----------------------------7--------|
|--4h=6----------------------4h==6p==4----------------7--------|
|-----------------------------------------------------7--------|
|--7-(7)--7-----(7)-(7)-(7)--7--(7)-(7)h==8----9-(9)-(9)-------|
|--------------------------------------------------------------|
|
| Gtr VI
|  <
|  Q            +Q              +E       +E       Q
|--------------------------------------------------------------|
|-12-----------(12)------------(12)-----(12)\------------------|
|--------------------------------------------------------------|
|--------------------------------------------------------------|
|--------------------------------------------------------------|
|--------------------------------------------------------------|


  N.C.                                          Am/F#
  Gtr II
   <  <   <  <  <   <   <   <  <   <   <  <  <   <   <  <
   S  S   S  S  S   S   S   S  S   S   S  S  S   S   S  S  6x
|----10--12----10--12--12--10-----12-----------------------||
|-12--------12----------------15------14-15-12--14--14-12-o||
|----------------------------------------------------------||
|----------------------------------------------------------||
|---------------------------------------------------------o||
|----------------------------------------------------------||
|
|  S  S   E     S   S   S   S  S   S   S  S +S   E      S  6x
|----------------------------------------------------------||
|---------------5h==7p==5------------------------7--------o||
|--4h=6---------------------4h=6p==4-------------7------x--||
|------------------------------------------------7------x--||
|--7-(7)--7----(7)-(7)-(7)--7-(7)-(7)h=8--9-(9)-(9)-------o||
|----------------------------------------------------------||
|
|  W                                                       6x
|----------------------------------------------------------||
|---------------------------------------------------------o||
|----------------------------------------------------------||
|----------------------------------------------------------||
|---------------------------------------------------------o||
|----------------------------------------------------------||


  6.
  N.C.                                               Am/F#
   <      <  <   <   <   <   <   <   <    <    <  <   <   <  <
   E      S  S   S   S   S   S   S   S    S    S  S   S   S  S
|--------12-----10--12--12--10------12-------------------------|
|-12--------12------------------15-------14---15-12--14--14-12-|
|--------------------------------------------------------------|
|--------------------------------------------------------------|
|--------------------------------------------------------------|
|--------------------------------------------------------------|
|
|  S  S   E      S   S   S   S   S   S    S    S +S   E.
|--------------------------------------------------------------|
|----------------5h==7p==5----------------------------7--------|
|--4h=6----------------------4h==6p==4----------------7--------|
|-----------------------------------------------------7--------|
|--7-(7)--7-----(7)-(7)-(7)--7--(7)-(7)h==8----9-(9)-(9)-------|
|--------------------------------------------------------------|
|
|  <
|  Q            +Q              +E       +E       Q
|--------------------------------------------------------------|
|-12-----------(12)------------(12)-----(12)\------------------|
|--------------------------------------------------------------|
|--------------------------------------------------------------|
|--------------------------------------------------------------|
|--------------------------------------------------------------|


  N.C.
 5/4
  Gtr I
   <  <   <  <  <   <   <   <  <   <   <  <  <   <  <  <
   S  S   S  S  S   S   S   S  S   S   S  S  S   S  S  S Q
|----10--12----10--12--12--10-----12-------------------------|
|-12--------12----------------15------14-15-12--14-14-12-----|
|------------------------------------------------------------|
|------------------------------------------------------------|
|------------------------------------------------------------|
|------------------------------------------------------------|
|
|  S  S   E     S   S   S   S  S   S   S  S +H
|------------------------------------------------------------|
|---------------5h==7p==5------------------------------------|
|--4h=6---------------------4h=6p==4-------------------------|
|------------------------------------------------------------|
|--7-(7)--7----(7)-(7)-(7)--7-(7)-(7)h=8--9-(9)--------------|
|------------------------------------------------------------|
|
|  W
|------------------------------------------------------------|
|------------------------------------------------------------|
|------------------------------------------------------------|
|------------------------------------------------------------|
|------------------------------------------------------------|
|------------------------------------------------------------|


 Verse
  Q=100
  D5
 4/4
  Gtr I
  E S S S S E +E  S S S S S S   E S S S S E +E  S S S S S S
|-----------------------------|-----------------------------|
|-----------------------------|-----------------------------|
|-----------------------------|-----------------------------|
|-----------------------------|-----------------------------|
|-0-0-0-x-x-0-(0)-x-x-0-0-x-x-|-0-0-0-x-x-0-(0)-x-x-0-0-x-x-|
|-0-0-0-x-x-0-(0)-x-x-0-0-x-x-|-0-0-0-x-x-0-(0)-x-x-0-0-x-x-|


    E5
    Gtrs I, II
    E. S S S E +S  S S S S S S S   E. S S S E +S  S S S S S S S
||-------------------------------|------------------------------|
||o----0-----------0-------------|----0-----------0-------------|
||-----0-----------0-------------|----0-----------0-------------|
||--2----x-x-2-(2)---x-x-2-2-x-x-|-2----x-x-2-(2)---x-x-2-2-x-x-|
||o-2----x-x-2-(2)---x-x-2-2-x-x-|-2----x-x-2-(2)---x-x-2-2-x-x-|
||--2----x-x-2-(2)---x-x-2-2-x-x-|-2----x-x-2-(2)---x-x-2-2-x-x-|


  Eb
  E. S S S E +S  S S S S S S S   E. S S S E +S  S S S S S E
|------------------------------|----------------------------|
|------------------------------|----------------------------|
|-2--2-x-x-2-(2)-2-x-x-2-2-x-x-|-2--2-x-x-2-(2)-2-x-x-2-2-2-|
|-1--1-x-x-1-(1)-1-x-x-1-1-x-x-|-1--1-x-x-1-(1)-1-x-x-1-1-1-|
|-1--1-x-x-1-(1)-1-x-x-1-1-x-x-|-1--1-x-x-1-(1)-1-x-x-1-1-1-|
|-1--1-x-x-1-(1)-1-x-x-1-1-x-x-|-1--1-x-x-1-(1)-1-x-x-1-1-1-|


  N.C.
                                      PM                  PM
  E. S S S S S S S S S S E +S      E. S S S S S +S  S S S S E.
|--------------------------------|-----------------------------|
|--------------------------------|-----------------------------|
|--------------------------------|-----------------------------|
|--------------------------------|--------------------------7\-|
|----------------3-5-5---7-(7)b8-|-5----6-3-0-5-(5)-5-3p0---5\-|
|-0--0-0h3h5-5-5-------0---------|----0-6-3-0-5-(5)-5-3p0-0----|


  1.
  D5
  E S S S S E +E  S S S S S S   E S S S S E +E  S S S S S S
|-----------------------------|-------------------------------||
|-----------------------------|------------------------------o||
|-----------------------------|-------------------------------||
|-----------------------------|-------------------------------||
|-0-0-0-x-x-0-(0)-x-x-0-0-x-x-|-0-0-0-x-x-0-(0)-x-x-0-0-x-x--o||
|-0-0-0-x-x-0-(0)-x-x-0-0-x-x-|-0-0-0-x-x-0-(0)-x-x-0-0-x-x---||


  2.
  D5
  Gtr I
   E  S S S S E +E  S S S S S S   E  S  S     S  S E +E  S S  S S S S
|-------------------------------|--------------------------------------|
|-------------------------------|--------------------------------------|
|-------------------------------|--------------------------------------|
|-------------------------------|--------------------------------------|
|--0--0-0-x-x-0-(0)-x-x-0-0-x-x-|-0--0--0-----x--x-0-(0)-x-x--0-0-x-x--|
|--0--0-0-x-x-0-(0)-x-x-0-0-x-x-|-0--0--0-----x--x-0-(0)-x-x--0-0-x-x--|
|
| Gtr II
|                                                  ~~~~~~
|  Q.         E +Q      Q         E.   +S    +E    E +Q       Q
|-------------------------------|--------------------------------------|
|-------------------------------|-7----(7)b8-(7)-----------------------|
|-----------------------9-------|------------------9-(9)---------------|
|-------------7-(7)-------------|----------------------------/7--------|
|-/5----------------------------|--------------------------------------|
|-------------------------------|--------------------------------------|


  E5
  E. S S S E +S  S S S S S S S   E.  S S S E +S  S S S S S S   S
|------------------------------|-----------------------------------|
|----0-----------0-------------|-----0-----------0-----------------|
|----0-----------0-------------|-----0-----------0-----------------|
|-2----x-x-2-(2)---x-x-2-2-x-x-|-2-----x-x-2-(2)---x-x-2-2-x---x---|
|-2----x-x-2-(2)---x-x-2-2-x-x-|-2-----x-x-2-(2)---x-x-2-2-x---x---|
|-2----x-x-2-(2)---x-x-2-2-x-x-|-2-----x-x-2-(2)---x-x-2-2-x---x---|
|
| ~~                             ~~~
|                                                          |--3--|
| Q.       E +Q        Q         H..                       S S   S
|------------------------------|-----------------------------------|
|------------------------------|-----------------------------------|
|------------------------------|-----------------------------------|
|-6----------------------------|-----------------------------------|
|----------7-(7)-------5-------|-7-------------------------7h8p==7-|
|------------------------------|-----------------------------------|


  Eb
  E. S S S E +S  S S S S S S S     E. S S S E +S  S  S    S   S S E
|------------------------------|------------------------------------|
|------------------------------|------------------------------------|
|-2--2-x-x-2-(2)-2-x-x-2-2-x-x-|---2--2-x-x-2-(2)-2--x----x---2-2-2-|
|-1--1-x-x-1-(1)-1-x-x-1-1-x-x-|---1--1-x-x-1-(1)-1--x----x---1-1-1-|
|-1--1-x-x-1-(1)-1-x-x-1-1-x-x-|---1--1-x-x-1-(1)-1--x----x---1-1-1-|
|-1--1-x-x-1-(1)-1-x-x-1-1-x-x-|---1--1-x-x-1-(1)-1--x----x---1-1-1-|
|
|                                  ~~
|                                                    |--3---|
| Q.       E +Q        Q         a Q.       E +E    +S  S   S Q
|------------------------------|------------------------------------|
|------------------------------|------------------------------------|
|------------------------------|------------------------------------|
|----------5-(5)-------7-------|-7h8--------7-(7)---(7)h8p==7p5-----|
|-6----------------------------|------------------------------------|
|------------------------------|------------------------------------|


  N.C.                                        G#F5D5G5      F5D5
                                            PM                  PM
   E. S S S  S S  S  S S S  S E +S       E. S S S S S +S  S S S S E.
|-------------------------------------|------------------------------|
|-------------------------------------|------------------------------|
|-------------------------------------|------------------------------|
|-------------------------------------|---------------------------7\-|
|--------------------3-5-5----7-(7)b8-|--5----6-3-0-5-(5)-5-3p0---5\-|
|--0--0-0h3h=5-5--5---------0---------|-----0-6-3-0-5-(5)-5-3p0-0----|
|
|  ~~~       ~~~~~~~~       ~~~~~~~~~~~~~~~~
|  Q    E    E   +E    E    Q           +W
|-------------------------------------|------------------------------|
|-/5--------/7---(7)-------/8---------|-(8)--------------------------|
|-------4--------------4--------------|------------------------------|
|-------------------------------------|------------------------------|
|-------------------------------------|------------------------------|
|-------------------------------------|------------------------------|


  D5
                                                   ~~~~~~
   Q.         E +Q      Q         E.   +S    +E    E +Q       Q
|-------------------------------|--------------------------------------|
|-------------------------------|-7----(7)b8-(7)-----------------------|
|-----------------------9-------|------------------9-(9)---------------|
|-------------7-(7)-------------|----------------------------/7--------|
|-/5----------------------------|--------------------------------------|
|-------------------------------|--------------------------------------|
|
|  E  S S S S E +E  S S S S S S   E  S  S     S  S E +E  S S  S S S S
|-------------------------------|--------------------------------------|
|-------------------------------|--------------------------------------|
|-------------------------------|--------------------------------------|
|-------------------------------|--------------------------------------|
|--0--0-0-x-x-0-(0)-x-x-0-0-x-x-|-0--0--0-----x--x-0-(0)-x-x--0-0-x-x--|
|--0--0-0-x-x-0-(0)-x-x-0-0-x-x-|-0--0--0-----x--x-0-(0)-x-x--0-0-x-x--|


  E5
  ~~                             ~~~
                                                           |--3--|
  Q.       E +Q        Q         H..                       S S   S
|------------------------------|-----------------------------------|
|------------------------------|-----------------------------------|
|------------------------------|-----------------------------------|
|-6----------------------------|-----------------------------------|
|----------7-(7)-------5-------|-7-------------------------7h8p==7-|
|------------------------------|-----------------------------------|
|
| E. S S S E +S  S S S S S S S   E.  S S S E +S  S S S S S S   S
|------------------------------|-----------------------------------|
|----0-----------0-------------|-----0-----------0-----------------|
|----0-----------0-------------|-----0-----------0-----------------|
|-2----x-x-2-(2)---x-x-2-2-x-x-|-2-----x-x-2-(2)---x-x-2-2-x---x---|
|-2----x-x-2-(2)---x-x-2-2-x-x-|-2-----x-x-2-(2)---x-x-2-2-x---x---|
|-2----x-x-2-(2)---x-x-2-2-x-x-|-2-----x-x-2-(2)---x-x-2-2-x---x---|


  Eb
                                   ~~
                                                     |--3---|
  Q.       E +Q        Q         a Q.       E +E    +S  S   S Q
|------------------------------|------------------------------------|
|------------------------------|------------------------------------|
|------------------------------|------------------------------------|
|----------5-(5)-------7-------|-7h8--------7-(7)---(7)h8p==7p5-----|
|-6----------------------------|------------------------------------|
|------------------------------|------------------------------------|
|
| E. S S S E +S  S S S S S S S     E. S S S E +S  S  S    S   S S E
|------------------------------|------------------------------------|
|------------------------------|------------------------------------|
|-2--2-x-x-2-(2)-2-x-x-2-2-x-x-|---2--2-x-x-2-(2)-2--x----x---2-2-2-|
|-1--1-x-x-1-(1)-1-x-x-1-1-x-x-|---1--1-x-x-1-(1)-1--x----x---1-1-1-|
|-1--1-x-x-1-(1)-1-x-x-1-1-x-x-|---1--1-x-x-1-(1)-1--x----x---1-1-1-|
|-1--1-x-x-1-(1)-1-x-x-1-1-x-x-|---1--1-x-x-1-(1)-1--x----x---1-1-1-|


  N.C.                                        G#F5D5G5      F5D5
   ~~~       ~~~~~~~~       ~~~~~~~~~~~~~~~~
   Q    E    E   +E    E    Q           +W
|-------------------------------------|------------------------------|
|-/5--------/7---(7)-------/8---------|-(8)--------------------------|
|-------4--------------4--------------|------------------------------|
|-------------------------------------|------------------------------|
|-------------------------------------|------------------------------|
|-------------------------------------|------------------------------|
|
|                                           PM                  PM
|  E. S S S  S S  S  S S S  S E +S       E. S S S S S +S  S S S S E.
|-------------------------------------|------------------------------|
|-------------------------------------|------------------------------|
|-------------------------------------|------------------------------|
|-------------------------------------|---------------------------7\-|
|--------------------3-5-5----7-(7)b8-|--5----6-3-0-5-(5)-5-3p0---5\-|
|--0--0-0h3h=5-5--5---------0---------|-----0-6-3-0-5-(5)-5-3p0-0----|


   Chorus
    Eb5                              D5
    Gtrs I, II
     E.  S S S  E  +S   S  E  E  E   E. S S S E +S  S E E E
||---------------------------------|------------------------|
||o--------------------------------|------------------------|
||--10--10-x-x-10-(10)-10-10-10-10-|-9--9-x-x-9-(9)-9-9-9-9-|
||---8---8-x-x--8--(8)--8--8--8--8-|-7--7-x-x-7-(7)-7-7-7-7-|
||o--6---6-x-x--6--(6)--6--6--6--6-|-5--5-x-x-5-(5)-5-5-5-5-|
||---------------------------------|------------------------|


  1.
  Eb5                              A5
   E.  S S S  E  +S   S  E  E  E   E. S S S E +S  S E E E
|--------------------------------|-------------------------||
|--------------------------------|------------------------o||
|-10--10-x-x-10-(10)-10-10-10-10-|-------------------------||
|--8---8-x-x--8--(8)--8--8--8--8-|-7--7-x-x-7-(7)-7-7-7-7--||
|--6---6-x-x--6--(6)--6--6--6--6-|-7--7-x-x-7-(7)-7-7-7-7-o||
|--------------------------------|-7--7-x-x-7-(7)-7-7-7-7--||


  2.
  Eb5                              D5    C5       A5    C5       G5Eb5
   E.  S S S  E  +S   S  E  E  E   S S S  S  S  S S S S  S  S  S E E
|--------------------------------|-----------------------------------|
|--------------------------------|-----------------------------------|
|-10--10-x-x-10-(10)-10-10-10-10-|-9-9-9-----------------------------|
|--8---8-x-x--8--(8)--8--8--8--8-|-7-7-7-10-10-10-7-7-7-10-10-10-5-1-|
|--6---6-x-x--6--(6)--6--6--6--6-|-5-5-5-10-10-10-7-7-7-10-10-10-5-1-|
|--------------------------------|-------10-10-10-7-7-7-10-10-10-5-1-|


   Verse
    D5
    E S S S S E +E  S S S S S S   E S S S S E +E  S S S S S S
||------------------------------|-----------------------------|
||o-----------------------------|-----------------------------|
||------------------------------|-----------------------------|
||------------------------------|-----------------------------|
||o-0-0-0-x-x-0-(0)-x-x-0-0-x-x-|-0-0-0-x-x-0-(0)-x-x-0-0-x-x-|
||--0-0-0-x-x-0-(0)-x-x-0-0-x-x-|-0-0-0-x-x-0-(0)-x-x-0-0-x-x-|


  E5
  E. S S S E +S  S S S S S S S   E. S S S E +S  S S S S S S S
|------------------------------|-------------------------------|
|----0-----------0-------------|----0-----------0--------------|
|----0-----------0-------------|----0-----------0--------------|
|-2----x-x-2-(2)---x-x-2-2-x-x-|-2----x-x-2-(2)---x-x-2-2-x-x--|
|-2----x-x-2-(2)---x-x-2-2-x-x-|-2----x-x-2-(2)---x-x-2-2-x-x--|
|-2----x-x-2-(2)---x-x-2-2-x-x-|-2----x-x-2-(2)---x-x-2-2-x-x--|


  Eb
  E. S S S E +S  S S S S S S S   E. S S S E +S  S S S S S E
|------------------------------|----------------------------|
|------------------------------|----------------------------|
|-2--2-x-x-2-(2)-2-x-x-2-2-x-x-|-2--2-x-x-2-(2)-2-x-x-2-2-2-|
|-1--1-x-x-1-(1)-1-x-x-1-1-x-x-|-1--1-x-x-1-(1)-1-x-x-1-1-1-|
|-1--1-x-x-1-(1)-1-x-x-1-1-x-x-|-1--1-x-x-1-(1)-1-x-x-1-1-1-|
|-1--1-x-x-1-(1)-1-x-x-1-1-x-x-|-1--1-x-x-1-(1)-1-x-x-1-1-1-|


  N.C.                                  G#F5D5G5      F5D5
                                      PM                  PM
  E. S S S S S S S S S S E +S      E. S S S S S +S  S S S S E.
|--------------------------------|------------------------------||
|--------------------------------|-----------------------------o||
|--------------------------------|------------------------------||
|--------------------------------|--------------------------7\--||
|----------------3-5-5---7-(7)b8-|-5----6-3-0-5-(5)-5-3p0---5\-o||
|-0--0-0h3h5-5-5-------0---------|----0-6-3-0-5-(5)-5-3p0-0-----||


   Chorus
    Eb5                              D5
     E.  S S S  E  +S   S  E  E  E   E. S S S E +S  S E E E
||---------------------------------|------------------------|
||o--------------------------------|------------------------|
||--10--10-x-x-10-(10)-10-10-10-10-|-9--9-x-x-9-(9)-9-9-9-9-|
||---8---8-x-x--8--(8)--8--8--8--8-|-7--7-x-x-7-(7)-7-7-7-7-|
||o--6---6-x-x--6--(6)--6--6--6--6-|-5--5-x-x-5-(5)-5-5-5-5-|
||---------------------------------|------------------------|


  1.
  Eb5                              A5
   E.  S S S  E  +S   S  E  E  E   E. S S S E +S  S E E E
|--------------------------------|-------------------------||
|--------------------------------|------------------------o||
|-10--10-x-x-10-(10)-10-10-10-10-|-------------------------||
|--8---8-x-x--8--(8)--8--8--8--8-|-7--7-x-x-7-(7)-7-7-7-7--||
|--6---6-x-x--6--(6)--6--6--6--6-|-7--7-x-x-7-(7)-7-7-7-7-o||
|--------------------------------|-7--7-x-x-7-(7)-7-7-7-7--||


  2.
  Eb5                              D5    C5       A5    C5       G5D5
   E.  S S S  E  +S   S  E  E  E   S S S  S  S  S S S S  S  S  S E E
|--------------------------------|-----------------------------------|
|--------------------------------|-----------------------------------|
|-10--10-x-x-10-(10)-10-10-10-10-|-9-9-9-----------------------------|
|--8---8-x-x--8--(8)--8--8--8--8-|-7-7-7-10-10-10-7-7-7-10-10-10-5-0-|
|--6---6-x-x--6--(6)--6--6--6--6-|-5-5-5-10-10-10-7-7-7-10-10-10-5-0-|
|--------------------------------|-------10-10-10-7-7-7-10-10-10-5-0-|


   Interlude
    Eadd4      E5            D5
             PM      PM
    E. S S S S S +S  S E S S E
||-----0-----------------------|
||o------0---------------------|
||---------3-------------------|
||--2----------2-(2)---2-x-x-0-|
||o-2----------2-(2)---2-x-x-0-|
||--2--------0-2-(2)-0-2-x-x-0-|


 1.,2.,3.                        4.                   H.=H
  Eadd4      G5      F5    D5    Eadd4      G5      F5    D5
                                                      Gtr I
           PM      PM                     PM      PM
  E. S S S S S +S  S E S S E     E. S S S S S +S  S E S S E
|----0------------------------||----0-----------------------|
|------0---------------------o||------0---------------------|
|--------3--------------------||--------3-------------------|
|-2----------5-(5)---3-x-x-0--||-2----------5-(5)---3-x-x-0-|
|-2----------5-(5)---3-x-x-0-o||-2----------5-(5)---3-x-x-0-|
|-2--------0-5-(5)-0-3-x-x-0--||-2--------0-5-(5)-0-3-x-x-0-|


 Verse
  Q=97
  E         D5E         D5  E         N.C.        D5
            Gtrs I, II
  E S S S S E E S S S S E   E S S S S E S S E S S E
|-------------------------|-------------------------|
|-----2-----------2-------|-----2-------------------|
|-----3-----------3-------|-----3-------------------|
|-2-2---x-x-0-2-2---x-x-0-|-2-2---x-x-6-6s7-9-8s9-0-|
|-2-2---x-x-0-2-2---x-x-0-|-2-2---x-x-------------0-|
|-2-2---x-x-0-2-2---x-x-0-|-2-2---x-x-6-6s7-9-8s9-0-|


    E         D5E         D5  E         N.C.        D5
    E S S S S E E S S S S E   E S S S S E S S E S S E   6x
||--------------------------|---------------------------||
||o-----2-----------2-------|-----2--------------------o||
||------3-----------3-------|-----3---------------------||
||--2-2---x-x-0-2-2---x-x-0-|-2-2---x-x-6-6s7-9-8s9-0---||
||o-2-2---x-x-0-2-2---x-x-0-|-2-2---x-x-------------0--o||
||--2-2---x-x-0-2-2---x-x-0-|-2-2---x-x-6-6s7-9-8s9-0---||


                Acoustic Interlude
              Q=95
  N.C.    F5D5   D5           A/D       A5/D
 2/4            4/4
  Gtrs III, IV
  H               E   S  S  E E +S  S E  E  S S
|-------------||-10--10-10-10-9-(9)-9-9-12\-----|
|-------------||--0---0--0--0-0-(0)-0-0--0--0-0-|
|-------------||--9---9--9--9-8-(8)-8-8-11\-x-x-|
|-------------||--0---0--0--0-0-(0)-0-0--0--0-0-|
|-------------||--------------------------------|
|-------------||--------------------------------|
|
| Gtrs I, II
|                 >
| S S S S E E    +W
|-------------||--------------------------------|
|-------------||--------------------------------|
|-------------||--------------------------------|
|-------------||--------------------------------|
|-3-5-----3-0-||-(0)----------------------------|
|-----0-0-3-0-||-(0)----------------------------|


  Am/D       Bm7/D N.C.
   E. S S  S E +S  S S S S S S S
|--8--8-8--8-7-(7)---------0-1h3--|
|--0--0-0--0-0-(0)-------5--------|
|--7--7-7--7-6-(6)-0-2s4----------|
|--0--0-0--0-0-(0)-x--------------|
|---------------------------------|
|---------------------------------|
|
| +Q    H.
|---------------------------------|
|---------------------------------|
|---------------------------------|
|---------------------------------|
|-(0)-----------------------------|
|-(0)-----------------------------|


  N.C.      Em/A              N.C.               E5N.C.
  Gtrs III, IV
  E  E   E  E +S  S E E S S   E. S +E  E +S  S E E S S
|-0-(0)-(0)-----------------|--------------------------|
|---------------------------|--------------------------|
|-----------2-(2)-2-2-2-2-2-|--------------------------|
|-----------2-(2)-2-2-2-2-2-|-7--5-(5)-8-(8)-2-2-2-----|
|-----------0-(0)-0-0-0-0-0-|--------------------2-----|
|----0---3------------------|-7--5-(5)-8-(8)-2-2-2-0-0-|


    D5           A/D           A5/D      Am/D      Bm7/D     N.C.
    Gtrs III, IV
     E   S  S  E  E   +S   S E  E  S S    E. S S S  E   +S   S S S S S S S
||--10--10-10-10--9---(9)--9-9-12\-----|--8--8-8-8--7---(7)----------0-1h3--|
||o--0---0--0--0--0---(0)--0-0--0--0-0-|--0--0-0-0--0---(0)--------5--------|
||---9---9--9--9--8---(8)--8-8-11\-x-x-|--7--7-7-7--6---(6)--0-2s4----------|
||---0---0--0--0--0---(0)--0-0--0--0-0-|--0--0-0-0--0---(0)--x--------------|
||o------------------------------------|------------------------------------|
||-------------------------------------|------------------------------------|
|
|   Gtr V
|    Q.           E   +H                  Q.        E   +H
||-------------------------------------|------------7---(7)-----------------|
||o------------------------------------|------------------------------------|
||-------------------------------------|-<7>--------------------------------|
||--<5>--------------------------------|-----------<7>-(<7>)----------------|
||o--------------<4>-(<4>)-------------|-----------<7>-(<7>)----------------|
||-------------------------------------|------------------------------------|


  1.,2.
            Em/A              N.C.               E5N.C.
  E  E   E  E +S  S E E S S   E. S +E  E +S  S E E S S
|-0-(0)-(0)-----------------|---------------------------||
|---------------------------|--------------------------o||
|-----------2-(2)-2-2-2-2-2-|---------------------------||
|-----------2-(2)-2-2-2-2-2-|-7--5-(5)-8-(8)-2-2-2------||
|-----------0-(0)-0-0-0-0-0-|--------------------2-----o||
|----0---3------------------|-7--5-(5)-8-(8)-2-2-2-0-0--||
|
| E  E   E  E +H              E. S +E  E +S  S E Q
|---------------------------|---------------------------||
|---------------------------|--------------------------o||
|-----------2-(2)-----------|---------------------------||
|-----------2-(2)-----------|-7--5-(5)-8-(8)-2-2-2------||
|-----------0-(0)-----------|--------------------------o||
|----0---3------------------|---------------------------||


  3.
            Em/A              N.C.               E5
  E  E   E  E +S  S E E S S   E. S +E  E +S  S E Q
|-0-(0)-(0)-----------------|-----------------------|
|---------------------------|-----------------------|
|-----------2-(2)-2-2-2-2-2-|-----------------------|
|-----------2-(2)-2-2-2-2-2-|-7--5-(5)-8-(8)-2-2-2--|
|-----------0-(0)-0-0-0-0-0-|--------------------2--|
|----0---3------------------|-7--5-(5)-8-(8)-2-2-2--|
|
| E  E   E  E +H              E. S +E  E +S  S E Q
|---------------------------|-----------------------|
|---------------------------|-----------------------|
|-----------2-(2)-----------|-----------------------|
|-----------2-(2)-----------|-7--5-(5)-8-(8)-2-2-2--|
|-----------0-(0)-----------|-----------------------|
|----0---3------------------|-----------------------|


   Verse
    Dm    Am             Dm     Am
    Gtrs III, IV, V
     Q.    E   +H          Q.    E   +H
||---------------------|---------------------|
||o-<5>---<7>-(<7>)----|-<12>---<7>-(<7>)----|
||--<5>---<7>-(<7>)----|-<12>---<7>-(<7>)----|
||--<5>---<7>-(<7>)----|-<12>---<7>-(<7>)----|
||o-<5>---<7>-(<7>)----|-<12>---<7>-(<7>)----|
||--<5>---<7>-(<7>)----|-<12>---<7>-(<7>)----|


  Dmadd9Am             Dm     Am
   Q.    E   +H          Q.    E   +H       3x
|-<5>----------------|----------------------||
|-<5>---<7>-(<7>)----|-<12>---<7>-(<7>)----o||
|-<5>---<7>-(<7>)----|-<12>---<7>-(<7>)-----||
|-<5>---<7>-(<7>)----|-<12>---<7>-(<7>)-----||
|-<5>---<7>-(<7>)----|-<12>---<7>-(<7>)----o||
|-<5>---<7>-(<7>)----|-<12>---<7>-(<7>)-----||


   Acoustic Interlude
    E=144
    Amaj13/C#                    Dmadd9
    Gtr V
    S S S S +S  E S S S E +Q     S S S S +S  E S S S E +Q     4x
||------------------0----------|-----------------0------------||
||o-------0-(0)-------0--------|-------------------0---------o||
||------3-------3-------3-(3)--|-------9-(9)---------9-(9)----||
||----4-----------4------------|-----7-------7----------------||
||o-4--------------------------|---8-----------8-------------o||
||-----------------------------|-0----------------------------||


   Verse
    Dsus2                         N.C.
    Gtrs III, V
    E S S S S S S E S S S S S S   S S S S S S S S +S  S S S S E S
||----------0-------------0-----|----------------------------------|
||o-------0---0---------0---0---|-----------------------------0-0--|
||------9-------9-----9-------9-|-------------0-------------0-0-0--|
||----0-------------0-----------|-7s5-0-----0----------------------|
||o-----------------------------|-------0h3-------------5s7--------|
||--0-------------0-------------|---------------3-(3)-0------------|


  Dsus2                         D5/G    Dm/F  Dsus(D5)
  E S S S S S S E S S S S S S   S S S S S S S S S E. +Q     4x
|---------0-------------0-----|-----------------------------||
|-------0---0---------0-------|----------------------------o||
|-----9-------9-----9-----9---|-----------------------------||
|---0-------------0-----------|-----0-------0---0-----------||
|-----------------------------|---0-------0----------------o||
|-0-------------0-----------7-|-5-----0-3-----2---0--(0)----||


   Interlude
    Dmadd9                                              A7sus4/D
    Gtr I
     Q.        S  S  +H                S  E    S  +E    E +Q.         S  S
||-----------------------------------|-------------------------------------|
||o----------------------------------|-------------------------------------|
||--11--------11h12-(12)-------------|-9h11--------------------------------|
||-----------------------------------|---------7--(7)---5-(5)--------------|
||o----------------------------------|--------------------------------8-10-|
||-----------------------------------|-------------------------------------|
|
|   Gtr II
|    Q.        S  S  +H                S  E    S  +E    E +Q.         S  S
||-----------------------------------|-------------------------------------|
||o-10--------10h12-(12)-------------|-8h10--------------------------------|
||-----------------------------------|--------11-(11)---9-(9)---------9-11-|
||-----------------------------------|-------------------------------------|
||o----------------------------------|-------------------------------------|
||-----------------------------------|-------------------------------------|
|
|   Gtrs III, IV, V
|    E. S S S  E     +S  S S S E S S   E    S  S   S  S E +S  S S S E S  S
||---0--0-0-0--0-----(0)-0-0-0-0-0-0-|-0----0--0---0--0-0-(0)-0-0-0-0-0--0-|
||o--5--5-5-5--5-----(5)-5-5-5-5-5-5-|-5----5--5---5--5-5-(5)-5-5-5-5-5--5-|
||---0--0-0-0--0-----(0)-0-0-0-0-0-0-|-0----0--0---0--0-2-(2)-2-2-2-2-2--2-|
||---0--0-0-0--0-----(0)-0-0-0-0-0-0-|-0----0--0---0--0-0-(0)-0-0-0-0-0--0-|
||o--0--0-0-0--0-----(0)-0-0-0-0-0-0-|-0----0--0---0--0-0-(0)-0-0-0-0-0--0-|
||---0--0-0-0--0-----(0)-0-0-0-0-0-0-|-0----0--0---0--0-0-(0)-0-0-0-0-0--0-|


     Dm        DmGm                     Dsus2/A       A
   a  E. S +E      E  +H                 H          H
|-------------------------------------|----------------------------|
|-------------------------------------|----------------------------|
|-------------------------------------|----------------------------|
|-------------------------------------|-12p========11--------------|
|-10h12--8-(8)----13-(13)-------------|----------------------------|
|-------------------------------------|----------------------------|
|
|  a  E. S +E      E  +H                 H..                  E
|-------------------------------------|----------------------------|
|-------------------------------------|-12------------------(12)---|
|-11h12--9-(9)---/14-(14)-------------|----------------------------|
|-------------------------------------|----------------------------|
|-------------------------------------|----------------------------|
|-------------------------------------|----------------------------|
|
|     E. S  S  S   E  +S  S S S E S S    Q   E S S  S S E E   S  S
|-------------------------------------|----------------------------|
|-----0--0--0------5--(5)-5-5-5-5-5-5-|--7---7-7-7--7-7-7-7---7--7-|
|-----0--0--0--0---5--(5)-5-5-5-5-5-5-|--9---9-9-9--9-8-8-8---8--8-|
|-----0--0--0--0---5--(5)-5-5-5-5-5-5-|--7---7-7-7--7-7-7-7---7--7-|
|-----0--0--0--0---5--(5)-5-5-5-5-5-5-|--7---7-7-7--7-7-7-7---7--7-|
|-----0--0--0--3---5--(5)-5-5-5-5-5-5-|--7---7-7-7--7-7-7-7---7--7-|


  Dmadd9                                              A7sus4/D
   Q.        S  S  +H                S  E    S  +E    E +Q.         S  S
|----------------------------------|-------------------------------------|
|----------------------------------|-------------------------------------|
|-11--------11h12-(12)-------------|-9h11--------------------------------|
|----------------------------------|---------7--(7)---5-(5)--------------|
|----------------------------------|--------------------------------8-10-|
|----------------------------------|-------------------------------------|
|
|  Q.        S  S  +H                S  E    S  +E    E +Q.         S  S
|----------------------------------|-------------------------------------|
|-10--------10h12-(12)-------------|-8h10--------------------------------|
|----------------------------------|--------11-(11)---9-(9)---------9-11-|
|----------------------------------|-------------------------------------|
|----------------------------------|-------------------------------------|
|----------------------------------|-------------------------------------|
|
|  E. S S S  E     +S  S S S E S S   E    S  S   S  S E +S  S S S E S  S
|--0--0-0-0--0-----(0)-0-0-0-0-0-0-|-0----0--0---0--0-0-(0)-0-0-0-0-0--0-|
|--5--5-5-5--5-----(5)-5-5-5-5-5-5-|-5----5--5---5--5-5-(5)-5-5-5-5-5--5-|
|--0--0-0-0--0-----(0)-0-0-0-0-0-0-|-0----0--0---0--0-2-(2)-2-2-2-2-2--2-|
|--0--0-0-0--0-----(0)-0-0-0-0-0-0-|-0----0--0---0--0-0-(0)-0-0-0-0-0--0-|
|--0--0-0-0--0-----(0)-0-0-0-0-0-0-|-0----0--0---0--0-0-(0)-0-0-0-0-0--0-|
|--0--0-0-0--0-----(0)-0-0-0-0-0-0-|-0----0--0---0--0-0-(0)-0-0-0-0-0--0-|


     Dmadd9        Fmaj7/C
   a  E.   S +E    E   +H
|--------------------------------------|
|--------------------------------------|
|--------------------------------------|
|--------------------------------------|
|-10h12----8-(8)---7---(7)-------------|
|--------------------------------------|
|
|  a  E.   S +E    S S +H
|--------------------------------------|
|--------------------------------------|
|-11h12----9-(9)---9s7-(7)-------------|
|--------------------------------------|
|--------------------------------------|
|--------------------------------------|
|
|     E  S S  S  S E   +S  S S S E S S
|-----0--0-0--0--0-0---(0)-0-0-0-0-0-0-|
|-----5--5-5--5--5-0---(0)-0-0-0-0-0-0-|
|-----0--0-0--0--0-0---(0)-0-0-0-0-0-0-|
|-----0--0-0--0--0-2---(2)-2-2-2-2-2-2-|
|-----0--0-0--0--0-3---(3)-3-3-3-3-3-3-|
|-----0--0-0--0--0---------------------|


 1.,2.                                3.
      D5/A  Dm                           D5/A  Dm                D5
   E. S +E  S  S  +H                  E. S +E  S  S  +H
|----------------------------------||-------------------------------|
|---------------------------------o||-------------------------------|
|----------------------------------||-------------------------------|
|----------------------------------||-------------------------------|
|--7--5-(5)-7h=8--(8)-------------o||-7--5-(5)-7h=8--(8)------------|
|----------------------------------||-------------------------------|
|
| +Q.       S  S  +H                  Q.       S  S  +H
|----------------------------------||-------------------------------|
|---------------------------------o||-------------------------------|
|-(7)-------7h=9--(9)--------------||-7--------7h=9--(9)------------|
|----------------------------------||-------------------------------|
|---------------------------------o||-------------------------------|
|----------------------------------||-------------------------------|
|
|                                                                Gtr VI
|  E. S +E  S  S  +S  S S S E S S     E. S +E  S  S  +S  S S S E E
|----------------------------------||-------------------------------|
|-----------0-(0)-(0)-0-0-0-0-0-0-o||----------0-(0)-(0)-0-0-0-0----|
|-----------0-(0)-(0)-0-0-0-0-0-0--||----------0-(0)-(0)-0-0-0-0----|
|-----0-(0)-0-(0)-(0)-0-0-0-0-0-0--||----0-(0)-0-(0)-(0)-0-0-0-0-0--|
|--1--0-(0)-3s=5--(5)-5-5-5-5-5-5-o||-1--0-(0)-3s=5--(5)-5-5-5-5-0--|
|----------------------------------||----------------------------0--|


   Verse
                 1.,2.,3.              4.
    E5        D5  E5     G5      D5    E5      G5        D5
    W             W                    W
||--------------|-------------------||------------------------|
||o-------------|------------------o||------------------------|
||--------------|-------------------||------------------------|
||--------------|-------------------||------------------------|
||o-------------|------------------o||------------------------|
||--------------|-------------------||------------------------|
|
|   W             W                    H.             E.    S
||--------------|-------------------||------------------------|
||o-------------|------------------o||------------------------|
||--------------|-------------------||------------------------|
||--------------|-------------------||---------------------12-|
||o-------------|------------------o||------------------------|
||--------------|-------------------||---------------------12-|
|
|   H..       E   Q  +E. S +Q.   E     Q   +E. S +Q.     E
||--------------|-------------------||------------------------|
||o-------------|------------------o||------------------------|
||--------------|-------------------||------------------------|
||--2---------0-|-2--(2)-5-(5)---0--||-2---(2)-5-(5)-----0----|
||o-2---------0-|-2--(2)-5-(5)---0-o||-2---(2)-5-(5)-----0----|
||--2---------0-|-2--(2)-5-(5)---0--||-2---(2)-5-(5)-----0----|


    E5                                           D5
     S    S  S  S  S  S  S  S  S  S  S  S  S   S  S  S
||--14------14----12----12----14----14----12-----12----|
||o------14----14----14----14----14----14-----14----14-|
||-----------------------------------------------------|
||-----------------------------------------------------|
||o----------------------------------------------------|
||-----------------------------------------------------|
|
|    S    S  S  S  S  S  S  S  Q           E.        S
||-----------------------------------------------------|
||o----------------------------------------------------|
||-----------------------------------------------------|
||--12---12-12--7--7s=9--9--9--9-----------9--------12-|
||o----------------------------------------------------|
||--12---12-12--7--7s=9--9--9--9-----------9--------12-|
|
|    H..                                          E
||-----------------------------------------------------|
||o----------------------------------------------------|
||-----------------------------------------------------|
||---2--------------------------------------------0----|
||o--2--------------------------------------------0----|
||---2--------------------------------------------0----|


 1.,2.,3.                                                4.
  E5                    G5                     D5        E5                    G5
   S  S  S  S  S   S  S  S  S   S  S  S  S   S  S  S      S  S  S  S  S   S  S  S  S   S  S  S  S  S  S  S
|-14----14----12-----12----14-----14----12-----12-----||-14----14----12-----12----14-----14----12----12----|
|----14----14-----14----14-----14----14-----14----14-o||----14----14-----14----14-----14----14----14----14-|
|-----------------------------------------------------||---------------------------------------------------|
|-----------------------------------------------------||---------------------------------------------------|
|----------------------------------------------------o||---------------------------------------------------|
|-----------------------------------------------------||---------------------------------------------------|
|
|  S  S  S  S  S   S  S  S  Q            E.        S      S  S  S  S  S   S  S  S  Q            Q
|-----------------------------------------------------||---------------------------------------------------|
|----------------------------------------------------o||---------------------------------------------------|
|-----------------------------------------------------||---------------------------------------------------|
|-12-12-12--7--7s==9--9--5--5------------5--------12--||-12-12-12--7--7s==9--9--5--5------------5----------|
|----------------------------------------------------o||---------------------------------------------------|
|-12-12-12--7--7s==9--9--5--5------------5--------12--||-12-12-12--7--7s==9--9--5--5------------5----------|
|
|  Q          +E.        S +Q.                  E         Q          +E.        S +H
|-----------------------------------------------------||---------------------------------------------------|
|----------------------------------------------------o||---------------------------------------------------|
|-----------------------------------------------------||---------------------------------------------------|
|--2----------(2)--------5-(5)------------------0-----||--2----------(2)--------5-(5)----------------------|
|--2----------(2)--------5-(5)------------------0----o||--2----------(2)--------5-(5)----------------------|
|--2----------(2)--------5-(5)------------------0-----||--2----------(2)--------5-(5)----------------------|


   Slithery Part
    D5 Eb5D5 N.C.
    Gtr I
                             >
     S  S  S  S  S  S  S  S  H               W
||-----------------------------------------|-----------------------------|
||o----------------------------------------|-----------------------------|
||-----------------------------------------|-----------------------------|
||--12h13p12h13p12h13p12h13p12-------------|-----------------------------|
||o----------------------------------------|-----------------------------|
||-----------------------------------------|-----------------------------|
|
|   Gtr VI
|    S  S  S  S  E.       S  E. S +S   S E   S S S S  S S  S   S  +H
||-----------------------------------------|-----------------------------|
||o----------------------------------------|-----------------------------|
||-----------------------------------------|-----------------------------|
||------------------------3s=7--9-(9)s10-7-|-0h3-5s6-10s9-12-/15-(15)----|
||o--0h=1p=0--0h=3-------------------------|-----------------------------|
||---0h=1p=0--------------3s=7--9-(9)s10-7-|-0h3-5s6-10s9-12-/15-(15)----|


  D5 Eb5D5 N.C.
  Gtr II
                            >
   S  S  S  S  S  S  S   S  H               W                            4x
|-----------------------------------------|------------------------------||
|-----------------------------------------|-----------------------------o||
|-----------------------------------------|------------------------------||
|-12h13p12h13p12h13p12h=13p12-------------|------------------------------||
|-----------------------------------------|-----------------------------o||
|-----------------------------------------|------------------------------||
|
| Gtr VI
|  S  S  S  S  E     S   S  E. S +S   S E   S S S S  S S  S   S  +H      4x
|-----------------------------------------|------------------------------||
|-----------------------------------------|-----------------------------o||
|-----------------------------------------|------------------------------||
|------------------------3s=7--9-(9)s10-7-|-0h3-5s6-10s9-12-/15-(15)-----||
|--0h=1p=0--0h=3--------------------------|-----------------------------o||
|--0h=1p=0----------(0)--3s=7--9-(9)s10-7-|-0h3-5s6-10s9-12-/15-(15)-----||


    N.C.
    Gtrs III, V
    S S S S S S S S S S S S +S   S E
||-----------------------------------|
||o----------------------------------|
||-----------------------------------|
||------------0---3s7-----9-(9)-10-7-|
||o-------0h3---3-----5--------------|
||--0h1p0---------3s7---7-9-(9)-10-7-|


 1.,2.,3.                         4.
                                  Gtrs I, II
                                  PM----|
  S S S S  S S  S   S  +H         S S S S  S S  S   S  +Q.    E
|------------------------------||---------------------------------|
|-----------------------------o||---------------------------------|
|------------------------------||---------------------------------|
|-0h3-5s6-10s9-12-/15-(15)-----||---------------------------------|
|-----------------------------o||----------------------------/5---|
|-0h3-5s6-10s9-12-/15-(15)-----||-0-3-5-6-10p9-12-/15-(15)--------|


   Verse
    N.C.                                                            D5
              ~         PM--|                                       PM
    E S S E E H      E. S S S S S S S E +E   E   E S S E  E E. S E. S
||-----------------|---------------------------|----------------------|
||o----------------|---------------------------|----------------------|
||-----------------|---------------------------|----------------------|
||-----------------|------------------5-(5)----|----------------------|
||o-4-4h5-7--------|----------4-5-7-8-------/5-|-4-4h5-7------------0-|
||----------7-5----|-7--5-7-8------------------|---------/7-5--2-5--0-|


  1.                                 2.
  G5F5G5D5    F5E5F5D5  N.C.         G5F5G5D5    F5E5F5D5  N.C.
  PM--|       PM--|                  PM--|       PM--|     PM--|
  S S S S +S  S S S E E  E S T T     S S S S +S  S S S E E S S S S
|---------------------------------||-------------------------------|
|--------------------------------o||-------------------------------|
|---------------------------------||-------------------------------|
|---------------------------------||-------------------------------|
|-5-3-5-0-(0)-3-2-3-0-0-/7-5h7p5-o||-5-3-5-0-(0)-3-2-3-0-0---------|
|-5-3-5-0-(0)-3-2-3-0-0-----------||-5-3-5-0-(0)-3-2-3-0-0-3-5-0-1-|


 Outro
  N.C.                                                         Dm/A
  Gtrs I, II
      PM--|   PM----------|            PM------|   PM--|     PM
  +S  S e e S S e e  S  S  S  S    +S  S e S e S S S S S  S  e  S
|-------------------------------|---------------------------------|
|-------------------------------|------------------------------12-|
|-------------------------------|------------------------------12-|
|-------------------------------|------------------------------12-|
|-------------------------------|------------------------------12-|
|-(1)-0-0-0---0-0-0-13-13-13-12-|-(12)-0-0-x-0-0---x-x-0-----0----|
|
| Gtr VI
|  W                                H.                    Q
|-------------------------------|---------------------------------|
|-------------------------------|---------------------------------|
|--9----------------------------|--\6---------------------7-------|
|-------------------------------|---------------------------------|
|-------------------------------|---------------------------------|
|-(0)---------------------------|--(0)-------------------(0)------|


          N.C.
          PM----|       PM  PM           PM|   PM|       PM|
                                                                   |-3-|
   +E     e S e  S   E  e S e S    S     S e S e  S   S  S S S +S  T T T T T S
|-------------------------------|----------------------------------------------|
|-(12)--------------------------|----------------------------------------------|
|-(12)--------------------------|----------------------------------------------|
|-(12)--------------------------|----------------------------------------------|
|-(12)--------------------------|----------------------------5-(5)h6p5p4h5p4---|
|---------0-x-0--0------0---0---|--------0-0---0--0------0-0-----------------6-|
|
|                    ~~~                              ~~~
|   Q..         +S  +H             Q..           +S  +H
|-------------------------------|----------------------------------------------|
|---8pb9========(8)r(8)---------|----------------------------------------------|
|-------------------------------|----------------------------------------------|
|-------------------------------|----------------------------------------------|
|-------------------------------|--8pb9==========(8)r(8)-----------------------|
|--(0)----------(0)-(0)---------|-(0)------------(0)-(0)-----------------------|


    N.C.                                                         Dm/A
        PM--|   PM----------|            PM------|   PM--|     PM
    +S  S e e S S e e  S  S  S  S    +S  S e S e S S S S S  S  e  S
||--------------------------------|---------------------------------|
||o-------------------------------|------------------------------12-|
||--------------------------------|------------------------------12-|
||--------------------------------|------------------------------12-|
||o-------------------------------|------------------------------12-|
||--(6)-0-0-0---0-0-0-13-13-13-12-|-(12)-0-0-x-0-0---x-x-0-----0----|
|
|    W                                H.                    Q
||--------------------------------|---------------------------------|
||o-------------------------------|---------------------------------|
||---9----------------------------|--\6---------------------7-------|
||--------------------------------|---------------------------------|
||o-------------------------------|---------------------------------|
||--(0)---------------------------|--(0)-------------------(0)------|


  1.,2.,3.,4.,5.,6.
          N.C.
          PM----|       PM  PM
   +E     e S e  S   E  e S e S
|-------------------------------|
|-(12)--------------------------|
|-(12)--------------------------|
|-(12)--------------------------|
|-(12)--------------------------|
|---------0-x-0--0------0---0---|
|
|                    ~~~
|   Q..         +S  +H
|-------------------------------|
|---8pb9========(8)r(8)---------|
|-------------------------------|
|-------------------------------|
|-------------------------------|
|--(0)----------(0)-(0)---------|


                                                   7.
                                                       N.C.
         PM|   PM|       PM|                           PM----|   PM
                                   |-3-|
   S     S e S e  S   S  S S S +S  T T T T T S      E  e S e S E e Q
|-----------------------------------------------||---------------------*|
|----------------------------------------------o||-12------------------*|
|-----------------------------------------------||-12------------------*|
|-----------------------------------------------||-12------------------*|
|----------------------------5-(5)h6p5p4h5p4---o||-12------------------*|
|--------0-0---0--0------0-0-----------------6--||-----0-x-0-0---0-----*|
|
|                     ~~~
|  Q..           +S  +H                            +W
|-----------------------------------------------||---------------------*|
|----------------------------------------------o||---------------------*|
|-----------------------------------------------||---------------------*|
|-----------------------------------------------||---------------------*|
|--8pb9==========(8)r(8)-----------------------o||---------------------*|
|-(0)------------(0)-(0)------------------------||-(0)-----------------*|


Duration Legend
---------------
W - whole; H - half; Q - quarter; E - 8th; S - 16th; T - 32nd; X - 64th; a - acciaccatura
+ - note tied to previous; . - note dotted; .. - note double dotted
Uncapitalized letters represent notes that are staccato (1/2 duration)
Irregular groupings are notated above the duration line
Duration letters will always appear directly above the note/fret number it represents the
duration for.  Duration letters with no fret number below them represent rests.  Multi-
bar rests are notated in the form Wxn, where n is the number of bars to rest for.  Low
melody durations appear below the staff

Tablature Legend
----------------
 h   - hammer-on
 p   - pull-off
 b   - bend
 pb  - pre-bend
 r   - bend release (if no number after the r, then release immediately)
 /\  - slide into or out of (from/to "nowhere")
 s   - legato slide
 S   - shift slide
  - natural harmonic
[n]  - artificial harmonic
n(n) - tapped harmonic
 ~   - vibrato
 tr  - trill
 T   - tap
 TP  - trem. picking
 PM  - palm muting
\n/  - tremolo bar dip; n = amount to dip
 \n  - tremolo bar down
 n/  - tremolo bar up
/n\  - tremolo bar inverted dip
 =   - hold bend; also acts as connecting device for hammers/pulls
 <>  - volume swell (louder/softer)
 x   - on rhythm slash represents muted slash
 o   - on rhythm slash represents single note slash

Misc Legend
-----------
 |  - bar
||  - double bar
||o - repeat start
o|| - repeat end
*|  - double bar (ending)
 :  - bar (freetime)
 $  - Segno
 &  - Coda
Tempo markers -  = BPM(8/16=s8/s16), where s8 = swing 8ths, s16 = swing 16ths

Related for Reverieharlequin Forest tab