Song name
# A B C D E F G H I J K L M N O P Q R S T U V W X Y Z

Opeth - Atonement tab

Help us improve GuitareTab! Take a short survey!
ANGRY BEAVER BASS TABS

Song: Atonement
Arist: Opeth
Album: Ghost Reveries
Bassist: Martin Mendez
Tuning: Standard BEADG
Notation Key:
~ -hold note
/ -slide up to next note

Main Riff:
G|-5/7-7~-------|----------5/7-7-|--------|--------|
D|-----0~-----0-|---0-0~-------0-|---0-0~-|--------|
A|----------3---|-3--------------|-3------|--------|
E|--------------|----------------|--------|-1-3-3~-|

Outro:
G|-------------------------------------|
D|-0~--------3~------------5/7-----5/7-|
A|-----0~--------3~----0~------0~------|
E|-------------------------------------|

 ________________________________________
|  ____    ____                          |
| (    `--'  .-'               _T_T_T_T_ |                     
| |8| O  O  |||||||||||||||||||[o o o o/ | 
| (__,--.____\                 `~~~`--'  |
|________________________________________|
Related for Atonement tab