Song name
# A B C D E F G H I J K L M N O P Q R S T U V W X Y Z

Opiate For The Masses - Burn You Down tab

Song: Burn You Down
Band: Opiate For The Masses
Album: Manifestio

Intro (synthesized)
e|---------------------------------|---------------------------------|
B|---------------------------------|---------------------------------|
G|---------------------------------|---------------------------------|
D|-0--/7---2---3---0--/7---2---3---|-0--/7---2---3---0--/8---0--/7---|
A|---------------------------------|---------------------------------|
D|---------------------------------|---------------------------------|

Verse x4 (only bass)
e|---------------------------------|---------------------------------|
B|---------------------------------|---------------------------------|
G|---------------------------------|---------------------------------|
D|---------------------------------|---------------------------------|
A|---------------------------------|---------------------------------|
D|---------------------------------|---------------------------------|

Intro x2
Pre-Chorus
e|---------------------------------|---------------------------------|
B|---------------------------------|---------------------------------|
G|-------------12~-----------------|-------------9~------------------|
D|---------8--(8)------------------|---------5--(5)----------7---3---|
A|-----8--(8)----------------------|-----5--(5)--------------7---3---|
D|-8--(8)--------------------------|-5--(5)------------------7---3---|

Chorus x2
e|---------------------------------|---------------------------------|
B|---------------------------------|---------------------------------|
G|---------------------------------|---------------------------------|
D|-0-0-0-0-0-0-0-0-8-8-8-8-8-8-8-8-|-5-5-5-5-5-5-5-5-3-3-3-3-2-2-2-2-|
A|-0-0-0-0-0-0-0-0-8-8-8-8-8-8-8-8-|-5-5-5-5-5-5-5-5-3-3-3-3-2-2-2-2-|
D|-0-0-0-0-0-0-0-0-8-8-8-8-8-8-8-8-|-5-5-5-5-5-5-5-5-3-3-3-3-2-2-2-2-|

Bridge x2
e|---------------------------------|---------------------------------|
B|---------------------------------|---------------------------------|
G|---------------------------------|---------------------------------|
D|-0~--------0--0--0---------------|-0~--------0--0--0---------------|
A|-0~--------0--0--0---------------|-0~--------0--0--0---------------|
D|-0~--------0--0--0---------------|-0~--------0--0--0---------------|

Verse x3
Intro x2
Pre-Chorus
e|---------------------------------|---------------------------------|
B|---------------------------------|---------------------------------|
G|-------------12~-----------------|-------------9~------------------|
D|---------8--(8)------------------|---------5--(5)------------------|
A|-----8--(8)----------------------|-----5--(5)----------------------|
D|-8--(8)--------------------------|-5--(5)--------------------------|

e|---------------------------------|---------------------------------|
B|---------------------------------|---------------------------------|
G|-------------12~-----------------|-------------9~------------------|
D|---------8--(8)------------------|---------5--(5)----------7---3---|
A|-----8--(8)----------------------|-----5--(5)--------------7---3---|
D|-8--(8)--------------------------|-5--(5)------------------7---3---|

Chorus x8
End
Tap to rate this tab
# A B C D E F G H I J K L M N O P Q R S T U V W X Y Z