Song name
# A B C D E F G H I J K L M N O P Q R S T U V W X Y Z

Opie Gone Bad - Big Mess tab

this is the intro to Opie Gone Bad's popular song Big Mess.

Its pretty simple actually.

standard tuning Eadgbe

h= hammer on
p= pull off
sb= slight bend

please rate and email me any corrections or comments at awaking_the_madness@hotmail.com

enjoy.


e----------------------------------------------------------------|
b----------------------------------------------------------------|
g----------------------------------------------------------------|
d------0-5h7p5---4---------0--5h7p5--44-----44-------------------|
a--0------------------0-0---------------00-----------------------|
E----------------------------------------------------------------|


e---------------------------------------------------------------|
b---------------------------------------------------------------|
g--------------------------------5------------------------------|
d-----0-5h7p5---4-------------4---5---44------44----------------|
a--0------------------3sb-0---------------00--------------------|
E---------------------------------------------------------------|


http://www.opiegonebad.com
Tap to rate this tab
 
# A B C D E F G H I J K L M N O P Q R S T U V W X Y Z