Song name
# A B C D E F G H I J K L M N O P Q R S T U V W X Y Z

Opihi Pickers - Old Fashion Touch tab

www.myspace.com/artviloria

(Intro)
(1:30)
A|--7p4p0---0-----------|
E|--------5---5p0---5/7-|
C|----------------4-----|
G|----------------------|

(Solo)
(1:32)
A|---0-0---0-0---0-0---0-0---0-0---0-0---0-0---0-0---0-0---0-0---0-0---0-0--------|
E|-0-----2-----4-----5-----4-----5-----7-----5-----7-----9-----7-----9-----10--9\-|
C|--------------------------------------------------------------------------------|
G|--------------------------------------------------------------------------------|

(1:37)
A|-----0-----|
E|-5p4-------|
C|-------6-4-|
G|-----------|

(1:38)
A|-0-0-0---------12-11-|
E|----------12---------|
C|-------11------------|
G|-------------0-------|

(1:40)
A|--------0-7p0-0-9p0-0-11p0-0-12-0-|
E|-12-------------------------------|
C|----11----------------------------|
G|----------------------------------|

(1:43)
A|---11-14-12--11h12-11-------|
E|--12------------------14-12-|
C|-11-------------------------|
G|----------------------------|

(1:45)
A|--------------7-7-|
E|-7/9-9--8-7---7-7-|
C|-6/8-8--7-6---6-6-|
G|-7/9-9--8-7---7-7-|

(1:47)
A|---12-14-12---12-16-14-12h14-------------12-|
E|--12---------12--------------16-14-----12---|
C|-13---------13-----------------------13-----|
G|--------------------------------------------|

(1:50)
A|-11-11h12p11-14p12p11-11-11h12p11-9-12-12-|
E|------------------------------------------|
C|------------------------------------------|
G|------------------------------------------|

(1:53)
A|-------12p7p0-12p7p0-11p7p0-11p7p0-9p5p0-9p5p0-7p4p0-4-0-|
E|-0-0-0---------------------------------------------------|
C|---------------------------------------------------------|
G|---------------------------------------------------------|

(1:57)
A|-------4----2-----0-|
E|---0-----0----0-----|
C|-1------------------|
G|-----2-----2----2---|

(1:59)
A|-----------------------7-|
E|---4-----2-----0---0-----|
C|-------1-----1-------1/4-|
G|-2---2-----2-----2-------|
Tap to rate this tab
# A B C D E F G H I J K L M N O P Q R S T U V W X Y Z