Song name
# A B C D E F G H I J K L M N O P Q R S T U V W X Y Z

Opm - Better Daze tab

OPM Better Daze - this is a great song and easy to play-enjoy!!

 Am         C         D               D

e-----0--------------------------------------|
b-------1-------1---------3----------3-----3-|
g---------2---------0-------2------0-----2---|
d-----------------2---0-0-----0-0h1----0-----| Repeat for intro
a-0-0-------3-3------------------------------| and verse
E--------------------------------------------|


Bridge
  Am        C           D         Dm

e-----5-----3-----3---5-----2-----1-----1-1r0-|
b-5-----5-----5---------------3-----3---------|
g---------5-----5---5-----2-----2-----2-------|
d---7-------------------0---------------------|
a---------------------------------------------|
E---------------------------------------------|

Chorus
A5,C5,D5,D#5,D5,C5  <---- repeat this through out chorus

Any questions,replies or death threats
e-mail me at burnsy1983@hotmail.com
Tap to rate this tab
# A B C D E F G H I J K L M N O P Q R S T U V W X Y Z