Song name
# A B C D E F G H I J K L M N O P Q R S T U V W X Y Z

Opm - Interlude 15 Minutes tab

Band: Opm
 Song: Interlude: 15 Minutes


    x2			    x1
 E-|-----------------------|-----------------------|
 B-|-----------------------|-----------------------|
 G-|--9-3-5---8-10---------|--9-3-5-----8--10------|
 D-|--9-3-3-5-8-10---------|--9-3-3-5---8--10------|
 A-|--7-1-3-3-6-8----------|--7-1-3-3---6--8-------|
 E-|--------3--------------|--------3--------------|


    x4			    x1
 E-|-----------------------|----------|
 B-|-----------------------|----------|
 G-|----3-5----8----10-----|----3-5---|
 D-|--5-3-5----8----10-----|--5-3-5---|
 A-|--5-1-3----6----8------|--5-1-3---|
 E-|--3--------------------|--3-------|


    x2			    x1
 E-|-----------------------|-----------------------|
 B-|-----------------------|-----------------------|
 G-|--9-3-5---8-10---------|--9-3-5-----8--10------|
 D-|--9-3-3-5-8-10---------|--9-3-3-5---8--10------|
 A-|--7-1-3-3-6-8----------|--7-1-3-3---6--8-------|
 E-|--------3--------------|--------3--------------|


   x4			    x1
 E-|-----------------------|----------|
 B-|-----------------------|----------|
 G-|----3-5----8----10-----|----3-5---|
 D-|--5-3-5----8----10-----|--5-3-5---|
 A-|--5-1-3----6----8------|--5-1-3---|
 E-|--3--------------------|--3-------|

tabbed by TAz Mckell
Tap to rate this tab
# A B C D E F G H I J K L M N O P Q R S T U V W X Y Z