Song name
# A B C D E F G H I J K L M N O P Q R S T U V W X Y Z

Opposing Motion - Deus Ex Machina tab

Title: Deus Ex Machina
Artist: Opposing Motion
Album: Laws of Motion
Music: Opposing Motion
Copyright: Lion Music 2013
Tempo = 140


Legend
L - tied note
x - dead note
h - hammer on/pull off
b - bend
s - slide
~ - vibrato
g - ghost note
> - accentuated note
t - trill
M - palm mute
. - staccato
P - popping (bass)
S - slapping (bass)
+ - tapping
W - wide vibrato
< - fade in
w - whammy bar
= - tremolo picking
v - brush up
^ - brush down
V - pick stroke up
n - pick stroke down

Split into lead first and then rhythm section separate below


Lead

E |----|----|----|----|--0M-13M12M0M-12M10M--|--0M-10M8M-0M-7M-8M---|
B |----|----|----|----|----------------------|----------------------|
G |----|----|----|----|----------------------|----------------------|
D |----|----|----|----|----------------------|----------------------|
A |----|----|----|----|----------------------|----------------------|
E |----|----|----|----|----------------------|----------------------|


--0M-13M12M0M-12M10M--|--0M-10M8M-0M-7M-8M---|----|----|----|----|----|----|
----------------------|----------------------|----|----|----|----|----|----|
----------------------|----------------------|----|----|----|----|----|----|
----------------------|----------------------|----|----|----|----|----|----|
----------------------|----------------------|----|----|----|----|----|----|
----------------------|----------------------|----|----|----|----|----|----|


----|----|--5h-0--------8h-5--------12h8----------|
----|----|--------1L-1--------5L-5--------10L10---|
----|----|----------------------------------------|
----|----|----------------------------------------|
----|----|----------------------------------------|
----|----|----------------------------------------|


--17h12-------20h17-------24h20---------|
--------13L13-------17L17-------22L22---|
----------------------------------------|
----------------------------------------|
----------------------------------------|
----------------------------------------|


--12h13-10h13-8h-13-10h13---------------|
----------------------------------------|
--------------------------9h-10-7h-10---|
----------------------------------------|
----------------------------------------|
----------------------------------------|


--------------------------12h13-10h13---|----------------------|
----------------------------------------|----------------------|
--9h-10-7h-10-5h-10-7h-10---------------|----------------------|
----------------------------------------|-----10-7--9L-9L-9~---|
----------------------------------------|--7-------------------|
----------------------------------------|----------------------|


--------------8h-12h8-----------8h-12---|
-----------10----------10----10---------|
--------9-----------------9-------------|
-----10---------------------------------|
--12------------------------------------|
----------------------------------------|


-----------17-20-17---------------------|----------------------|
--------17----------17------------------|-----------------13---|
-----17----------------17---------------|-----------10-9-------|
--19----------------------19L19L19L19~--|-----10-9-------------|
----------------------------------------|--8-------------------|
----------------------------------------|----------------------|


-----13-12-0--12-10---|--0--10-8--0--8--7----|--5L-5L-5L-5L-5L-5----|
--12------------------|----------------------|----------------------|
----------------------|----------------------|----------------------|
----------------------|----------------------|----------------------|
----------------------|----------------------|--12M20M19M12M19M17M--|
----------------------|----------------------|----------------------|


----------------------|----|----------------------------------------|
----------------------|----|----------------------------------------|
----------------------|----|--------------7L----7~----5~----4L-4~---|
----------------------|----|----------------------------------------|
--12M17M15M12M14M15M--|----|--5L----5-------------------------------|
----------------------|----|--3L----3-------------------------------|


----------------------|--12M13M10M12M8M-10M--|----|
----------------------|----------------------|----|
--19~---17~16~17~16~--|----------------------|----|
----------------------|----------------------|----|
----------------------|----------------------|----|
----------------------|----------------------|----|


----------------------------------------|----|----|----|----|----|----|----|
----------------------------------------|----|----|----|----|----|----|----|
--------------7L----7~----5~----4L-4~---|----|----|----|----|----|----|----|
----------------------------------------|----|----|----|----|----|----|----|
--5L----5-------------------------------|----|----|----|----|----|----|----|
--3L----3-------------------------------|----|----|----|----|----|----|----|



--------------------------------------------------------------------------------

Rhythm


E |----|----|----|----|-------|----------------------|----------------------|
B |----|----|----|----|-------|----------------------|----------------------|
G |----|----|----|----|-------|----------------------|----------------------|
D |----|----|----|----|--2L---|--2L----2L----2-------|--2-------------------|
A |----|----|----|----|--0L---|--0L----0L----0--5----|--0-------------------|
E |----|----|----|----|-------|-----------------3----|----------------------|


----|----------------------|----------------------|----------------------|
----|----------------------|----------------------|----------------------|
----|----------------------|----------------------|----------------------|
----|----------------------|----------------------|----------------------|
----|--0M-8M-7M-0M-7M-5M---|--0M-5M-3M-0M-2M-3M---|--0M-8M-7M-0M-7M-5M---|
----|----------------------|----------------------|----------------------|


----------------------|----------------------------------------|
----------------------|----------------------------------------|
----------------------|----------------------------------------|
----------------------|----------------------------------------|
--0M-5M-3M-0M-2M-3M---|--0M-0M-8M-8M-7M-7M-0M-0M-7M-7M-5M-5M---|
----------------------|----------------------------------------|


----------------------------------------|
----------------------------------------|
----------------------------------------|
----------------------------------------|
--0M-0M-5M-5M-3M-3M-0M-0M-2M-2M-3M-3M---|
----------------------------------------|


----------------------------------------|
----------------------------------------|
----------------------------------------|
----------------------------------------|
--0M-0M-8M-8M-7M-7M-0M-0M-7M-7M-5M-5M---|
----------------------------------------|


----------------------------------------|
----------------------------------------|
----------------------------------------|
----------------------------------------|
--0M-0M-5M-5M-3M-3M-0M-0M-2M-2M-3M-3M---|
----------------------------------------|


----------------------------------------|
----------------------------------------|
----------------------------------------|
----------------------------------------|
----------------------------------------|
----------------------------------------|


----------------------------------------|
----------------------------------------|
----------------------------------------|
--2M-2M---------------------------------|
--0M-0M---------------------------------|
----------------------------------------|


----------------------------------------|
----------------------------------------|
----------------------------------------|
----------------------------------------|
--8M-8M-8-------------------------------|
----------------------------------------|


----------------------------------------|-------|
----------------------------------------|-------|
----------------------------------------|-------|
----------------------------------------|-------|
--8M-8M---------------------------------|--2----|
----------------------------------------|--0----|


----------------------------------------|
----------------------------------------|
----------------------------------------|
----------------------------------------|
--0M-0M-0M-0M-0M----------0M------------|
----------------------------------------|


----------------------------------------|
----------------------------------------|
----------------------------------------|
----------------------------------------|
--0M-0M-------------------------0--0----|
----------------------------------------|


----------------------------------------|
----------------------------------------|
----------------------------------------|
----------------------------------------|
--8--8----------------------------------|
----------------------------------------|


----------------------------------------|
----------------------------------------|
----------------------------------------|
----------------------------------------|
--8--8----------------------------------|
----------------------------------------|


----------------------------------------|----------------------|
----------------------------------------|----------------------|
----------------------------------------|----------------------|
----------------------------------------|----------------------|
--7M-7M-7M-7M-7M----------7M------------|--0M-8M-7M-0M-7M-5M---|
----------------------------------------|----------------------|


----------------------|-------|----------------------------------------|
----------------------|-------|----------------------------------------|
----------------------|-------|----------------------------------------|
----------------------|-------|--------------9L----9~----7~----5L-5~---|
--0M-5M-3M-0M-2M-3M---|--3----|--5L----5-------------------------------|
----------------------|--1----|--3L----3-------------------------------|


----------------------|----------------------|-------|
----------------------|----------------------|-------|
--7~----5~-4~-5~-4~---|----------------------|-------|
----------------------|--9--10-7--9--5--7----|-------|
----------------------|--7--8--5--7--3--5----|--3----|
----------------------|----------------------|--1----|


----------------------------------------|
----------------------------------------|
----------------------------------------|
--------------9L----9~----7~----5L-5~---|
--5L----5-------------------------------|
--3L----3-------------------------------|


----------------------------------------|
----------------------------------------|
----------------------------------------|
----------------------------------------|
--0M-0M-0M-0M-0M----------0M------------|
----------------------------------------|


----------------------------------------|----------------------|
----------------------------------------|----------------------|
----------------------------------------|-----------5--4-------|
----------------------------------------|--------3--------5----|
--0M-0M-0M-0M-0M-0M-0M----0M-0M---------|-----3----------------|
----------------------------------------|--1-------------------|


----------------------|----------------------------------------|
----------------------|----------------------------------------|
--7--5--4--5----------|----------------------------------------|
----------------------|----------------------------------------|
-----------------5----|--0M-0M-0M-0M-0M----------0M------------|
--------------3-------|----------------------------------------|


----------------------|----------------------|----------------------|
----------------------|----------------------|----------------------|
----------------------|-----------5--4-------|--7--5--4--5----------|
--2M-3M-0M-2M----0M---|--------3--------5----|----------------------|
--------------3M------|-----3----------------|-----------------5----|
----------------------|--1-------------------|--------------3-------|


----------------------------------------|
----------------------------------------|
----------------------------------------|
----------------------------------------|
--0M-0M-8M-8M-7M-7M-0M-0M-7M-7M-5M-5M---|
----------------------------------------|


----------------------------------------|
----------------------------------------|
----------------------------------------|
----------------------------------------|
--0M-0M-5M-5M-3M-3M-0M-0M-2M-2M-3M-3M---|
----------------------------------------|


----------------------------------------|
----------------------------------------|
----------------------------------------|
----------------------------------------|
--0M-0M-8M-8M-7M-7M-0M-0M-7M-7M-5M-5M---|
----------------------------------------|


----------------------------------------|
----------------------------------------|
----------------------------------------|
----------------------------------------|
--0M-0M-5M-5M-3M-3M-0M-0M-2M-2M-3M-3M---|
----------------------------------------|


----------------------------------------|
----------------------------------------|
----------------------------------------|
----------------------------------------|
--0M-0M-8M-8M-7M-7M-0M-0M-7M-7M-5M-5M---|
----------------------------------------|


----------------------------------------|
----------------------------------------|
----------------------------------------|
----------------------------------------|
--0M-0M-5M-5M-3M-3M-0M-0M-2M-2M-3M-3M---|
----------------------------------------|


----------------------------------------|
----------------------------------------|
----------------------------------------|
----------------------------------------|
--0M-0M-8M-8M-7M-7M-0M-0M-7M-7M-5M-5M---|
----------------------------------------|


----------------------------------------|
----------------------------------------|
----------------------------------------|
----------------------------------------|
--0M-0M-5M-5M-3M-3M-0M-0M-2M-2M-3M-3M---|
----------------------------------------|


----------------------------------------|
----------------------------------------|
----------------------------------------|
----------------------------------------|
--0M-0M-8M-8M-7M-7M---------------------|
----------------------------------------|


----------------------------------------|
----------------------------------------|
----------------------------------------|
----------------------------------------|
--0M-0M-8M-8M-7M-7M---------------------|
----------------------------------------|


----------------------------------------|
----------------------------------------|
----------------------------------------|
----------------------------------------|
--0M-0M-8M-8M-7M-7M---------------------|
----------------------------------------|


----------------------------------------|
----------------------------------------|
----------------------------------------|
----------------------------------------|
--0M-0M-8M-8M-7M-7M---------------------|
----------------------------------------|


----------------------------------------|----|----||
----------------------------------------|----|----||
----------------------------------------|----|----||
----------------------------------------|----|----||
--0M-0M-0M-0M-0M-0M---------------------|----|----||
----------------------------------------|----|----||

Tap to rate this tab
# A B C D E F G H I J K L M N O P Q R S T U V W X Y Z