Song name
# A B C D E F G H I J K L M N O P Q R S T U V W X Y Z

Opshop - Big Energy In Little Places tab

Intro:

e|-----10----10-10----------------- }
b|--10----10----------------------- }
g|--------------------------------- }
d|--------------------------------- }
a|--------------------------------- }
e|--------------------------------- }

or harmonics

e|------------------------------------- }
b|------------------------------------- }
g|---------[7]---[7]-[7]--------------- }
d|------[7]---[7]---------------------- }
a|------------------------------------- }
e|------------------------------------- }

Verse

e|-------------------------------- }
b|---8--6--------6-5-3------------ }
g|-------------------------------- }
d|-------------------------------- }
a|-------------------------------- }
e|-------------------------------- }

e|----------------------------- }
b|----------------------------- }
g|----------------------------- }
d|----------------------------- }
a|----------------------------- }
e|--7-7--9-9--11-11-11--------- }

Chorus

e|---------------------------------------- }
b|--10--------11-------10--------8-------- }
g|--10--x8----10--x8---10--x8----7--x8---- }
d|---------------------------------------- }
a|---------------------------------------- }
e|---------------------------------------- }
Tap to rate this tab
 
# A B C D E F G H I J K L M N O P Q R S T U V W X Y Z